  0
SECTION
  2
BLOCKS
  0
ENDSEC
  0
SECTION
  2
ENTITIES
  0
LINE
  8
0
 10
104.206
 20
45.5955
 11
104.095
 21
45.7061
  0
LINE
  8
0
 10
104.095
 20
45.7061
 11
104.024
 21
45.8455
  0
LINE
  8
0
 10
104.024
 20
45.8455
 11
104
 21
46
  0
LINE
  8
0
 10
104
 20
46
 11
104.024
 21
46.1545
  0
LINE
  8
0
 10
104.024
 20
46.1545
 11
104.095
 21
46.2939
  0
LINE
  8
0
 10
104.095
 20
46.2939
 11
104.206
 21
46.4045
  0
LINE
  8
0
 10
104.206
 20
46.4045
 11
104.345
 21
46.4755
  0
LINE
  8
0
 10
104.345
 20
46.4755
 11
104.5
 21
46.5
  0
LINE
  8
0
 10
104.5
 20
46.5
 11
104.655
 21
46.4755
  0
LINE
  8
0
 10
104.655
 20
46.4755
 11
104.794
 21
46.4045
  0
LINE
  8
0
 10
104.794
 20
46.4045
 11
104.905
 21
46.2939
  0
LINE
  8
0
 10
104.905
 20
46.2939
 11
104.976
 21
46.1545
  0
LINE
  8
0
 10
104.976
 20
46.1545
 11
105
 21
46
  0
LINE
  8
0
 10
105
 20
46
 11
128.85
 21
46
  0
LINE
  8
0
 10
128.85
 20
46
 11
129.005
 21
46.0245
  0
LINE
  8
0
 10
129.005
 20
46.0245
 11
129.144
 21
46.0955
  0
LINE
  8
0
 10
129.144
 20
46.0955
 11
129.255
 21
46.2061
  0
LINE
  8
0
 10
129.255
 20
46.2061
 11
129.326
 21
46.3455
  0
LINE
  8
0
 10
129.326
 20
46.3455
 11
129.35
 21
46.5
  0
LINE
  8
0
 10
129.35
 20
46.5
 11
129.35
 21
97.75
  0
LINE
  8
0
 10
129.35
 20
97.75
 11
129.326
 21
97.9045
  0
LINE
  8
0
 10
129.326
 20
97.9045
 11
129.255
 21
98.0439
  0
LINE
  8
0
 10
129.255
 20
98.0439
 11
129.144
 21
98.1545
  0
LINE
  8
0
 10
129.144
 20
98.1545
 11
129.005
 21
98.2255
  0
LINE
  8
0
 10
129.005
 20
98.2255
 11
128.85
 21
98.25
  0
LINE
  8
0
 10
128.85
 20
98.25
 11
111.85
 21
98.25
  0
LINE
  8
0
 10
111.85
 20
98.25
 11
111.85
 21
104.75
  0
LINE
  8
0
 10
111.85
 20
104.75
 11
111.826
 21
104.905
  0
LINE
  8
0
 10
111.826
 20
104.905
 11
111.755
 21
105.044
  0
LINE
  8
0
 10
111.755
 20
105.044
 11
111.644
 21
105.155
  0
LINE
  8
0
 10
111.644
 20
105.155
 11
111.505
 21
105.226
  0
LINE
  8
0
 10
111.505
 20
105.226
 11
111.35
 21
105.25
  0
LINE
  8
0
 10
111.35
 20
105.25
 11
105
 21
105.25
  0
LINE
  8
0
 10
105
 20
105.25
 11
104.976
 21
105.095
  0
LINE
  8
0
 10
104.976
 20
105.095
 11
104.905
 21
104.956
  0
LINE
  8
0
 10
104.905
 20
104.956
 11
104.794
 21
104.845
  0
LINE
  8
0
 10
104.794
 20
104.845
 11
104.655
 21
104.774
  0
LINE
  8
0
 10
104.655
 20
104.774
 11
104.5
 21
104.75
  0
LINE
  8
0
 10
104.5
 20
104.75
 11
104.345
 21
104.774
  0
LINE
  8
0
 10
104.345
 20
104.774
 11
104.206
 21
104.845
  0
LINE
  8
0
 10
104.206
 20
104.845
 11
104.095
 21
104.956
  0
LINE
  8
0
 10
104.095
 20
104.956
 11
104.024
 21
105.095
  0
LINE
  8
0
 10
104.024
 20
105.095
 11
104
 21
105.25
  0
LINE
  8
0
 10
104
 20
105.25
 11
104.024
 21
105.405
  0
LINE
  8
0
 10
104.024
 20
105.405
 11
104.095
 21
105.544
  0
LINE
  8
0
 10
104.095
 20
105.544
 11
104.206
 21
105.655
  0
LINE
  8
0
 10
104.206
 20
105.655
 11
104.345
 21
105.726
  0
LINE
  8
0
 10
104.345
 20
105.726
 11
104.5
 21
105.75
  0
LINE
  8
0
 10
104.5
 20
105.75
 11
104.5
 21
114.5
  0
LINE
  8
0
 10
104.5
 20
114.5
 11
104.476
 21
114.655
  0
LINE
  8
0
 10
104.476
 20
114.655
 11
104.405
 21
114.794
  0
LINE
  8
0
 10
104.405
 20
114.794
 11
104.294
 21
114.905
  0
LINE
  8
0
 10
104.294
 20
114.905
 11
104.155
 21
114.976
  0
LINE
  8
0
 10
104.155
 20
114.976
 11
104
 21
115
  0
LINE
  8
0
 10
104
 20
115
 11
0.5
 21
115
  0
LINE
  8
0
 10
0.5
 20
115
 11
0.475525
 21
114.845
  0
LINE
  8
0
 10
0.475525
 20
114.845
 11
0.404495
 21
114.706
  0
LINE
  8
0
 10
0.404495
 20
114.706
 11
0.293884
 21
114.595
  0
LINE
  8
0
 10
0.293884
 20
114.595
 11
0.154495
 21
114.524
  0
LINE
  8
0
 10
0.154495
 20
114.524
 11
0
 21
114.5
  0
LINE
  8
0
 10
0
 20
114.5
 11
-0.154495
 21
114.524
  0
LINE
  8
0
 10
-0.154495
 20
114.524
 11
-0.293884
 21
114.595
  0
LINE
  8
0
 10
-0.293884
 20
114.595
 11
-0.404495
 21
114.706
  0
LINE
  8
0
 10
-0.404495
 20
114.706
 11
-0.475525
 21
114.845
  0
LINE
  8
0
 10
-0.475525
 20
114.845
 11
-0.5
 21
115
  0
LINE
  8
0
 10
-0.5
 20
115
 11
-30.65
 21
115
  0
LINE
  8
0
 10
-30.65
 20
115
 11
-30.8045
 21
114.976
  0
LINE
  8
0
 10
-30.8045
 20
114.976
 11
-30.9439
 21
114.905
  0
LINE
  8
0
 10
-30.9439
 20
114.905
 11
-31.0545
 21
114.794
  0
LINE
  8
0
 10
-31.0545
 20
114.794
 11
-31.1255
 21
114.655
  0
LINE
  8
0
 10
-31.1255
 20
114.655
 11
-31.15
 21
114.5
  0
LINE
  8
0
 10
-31.15
 20
114.5
 11
-31.15
 21
101
  0
LINE
  8
0
 10
-31.15
 20
101
 11
-17.5
 21
101
  0
LINE
  8
0
 10
-17.5
 20
101
 11
-17.5
 21
92.5
  0
LINE
  8
0
 10
-17.5
 20
92.5
 11
-20.89
 21
92.5
  0
LINE
  8
0
 10
-20.89
 20
92.5
 11
-20.89
 21
89.5
  0
LINE
  8
0
 10
-20.89
 20
89.5
 11
-31.15
 21
89.5
  0
LINE
  8
0
 10
-31.15
 20
89.5
 11
-31.15
 21
46.5
  0
LINE
  8
0
 10
-31.15
 20
46.5
 11
-31.1255
 21
46.3455
  0
LINE
  8
0
 10
-31.1255
 20
46.3455
 11
-31.0545
 21
46.2061
  0
LINE
  8
0
 10
-31.0545
 20
46.2061
 11
-30.9439
 21
46.0955
  0
LINE
  8
0
 10
-30.9439
 20
46.0955
 11
-30.8045
 21
46.0245
  0
LINE
  8
0
 10
-30.8045
 20
46.0245
 11
-30.65
 21
46
  0
LINE
  8
0
 10
-30.65
 20
46
 11
-0.5
 21
46
  0
LINE
  8
0
 10
-0.5
 20
46
 11
-0.475525
 21
46.1545
  0
LINE
  8
0
 10
-0.475525
 20
46.1545
 11
-0.404495
 21
46.2939
  0
LINE
  8
0
 10
-0.404495
 20
46.2939
 11
-0.293884
 21
46.4045
  0
LINE
  8
0
 10
-0.293884
 20
46.4045
 11
-0.154495
 21
46.4755
  0
LINE
  8
0
 10
-0.154495
 20
46.4755
 11
0
 21
46.5
  0
LINE
  8
0
 10
0
 20
46.5
 11
0.154495
 21
46.4755
  0
LINE
  8
0
 10
0.154495
 20
46.4755
 11
0.293884
 21
46.4045
  0
LINE
  8
0
 10
0.293884
 20
46.4045
 11
0.404495
 21
46.2939
  0
LINE
  8
0
 10
0.404495
 20
46.2939
 11
0.475525
 21
46.1545
  0
LINE
  8
0
 10
0.475525
 20
46.1545
 11
0.5
 21
46
  0
LINE
  8
0
 10
0.5
 20
46
 11
0.475525
 21
45.8455
  0
LINE
  8
0
 10
0.475525
 20
45.8455
 11
0.404495
 21
45.7061
  0
LINE
  8
0
 10
0.404495
 20
45.7061
 11
0.293884
 21
45.5955
  0
LINE
  8
0
 10
0.293884
 20
45.5955
 11
0.154495
 21
45.5245
  0
LINE
  8
0
 10
0.154495
 20
45.5245
 11
0
 21
45.5
  0
LINE
  8
0
 10
0
 20
45.5
 11
0
 21
0.5
  0
LINE
  8
0
 10
0
 20
0.5
 11
0.154495
 21
0.475525
  0
LINE
  8
0
 10
0.154495
 20
0.475525
 11
0.293884
 21
0.404495
  0
LINE
  8
0
 10
0.293884
 20
0.404495
 11
0.404495
 21
0.293884
  0
LINE
  8
0
 10
0.404495
 20
0.293884
 11
0.475525
 21
0.154495
  0
LINE
  8
0
 10
0.475525
 20
0.154495
 11
0.5
 21
0
  0
LINE
  8
0
 10
0.5
 20
0
 11
0.475525
 21
-0.154495
  0
LINE
  8
0
 10
0.475525
 20
-0.154495
 11
0.404495
 21
-0.293884
  0
LINE
  8
0
 10
0.404495
 20
-0.293884
 11
0.293884
 21
-0.404495
  0
LINE
  8
0
 10
0.293884
 20
-0.404495
 11
0.154495
 21
-0.475525
  0
LINE
  8
0
 10
0.154495
 20
-0.475525
 11
0
 21
-0.5
  0
LINE
  8
0
 10
0
 20
-0.5
 11
-0.154495
 21
-0.475525
  0
LINE
  8
0
 10
-0.154495
 20
-0.475525
 11
-0.293884
 21
-0.404495
  0
LINE
  8
0
 10
-0.293884
 20
-0.404495
 11
-0.404495
 21
-0.293884
  0
LINE
  8
0
 10
-0.404495
 20
-0.293884
 11
-0.475525
 21
-0.154495
  0
LINE
  8
0
 10
-0.475525
 20
-0.154495
 11
-0.5
 21
0
  0
LINE
  8
0
 10
-0.5
 20
0
 11
-14.1
 21
0
  0
LINE
  8
0
 10
-14.1
 20
0
 11
-14.2545
 21
-0.0244598
  0
LINE
  8
0
 10
-14.2545
 20
-0.0244598
 11
-14.3939
 21
-0.0954895
  0
LINE
  8
0
 10
-14.3939
 20
-0.0954895
 11
-14.5045
 21
-0.2061
  0
LINE
  8
0
 10
-14.5045
 20
-0.2061
 11
-14.5755
 21
-0.34549
  0
LINE
  8
0
 10
-14.5755
 20
-0.34549
 11
-14.6
 21
-0.499985
  0
LINE
  8
0
 10
-14.6
 20
-0.499985
 11
-14.6
 21
-3.49998
  0
LINE
  8
0
 10
-14.6
 20
-3.49998
 11
-7.34999
 21
-3.5
  0
LINE
  8
0
 10
-7.34999
 20
-3.5
 11
-7.34999
 21
-35.5
  0
LINE
  8
0
 10
-7.34999
 20
-35.5
 11
-14.6
 21
-35.5
  0
LINE
  8
0
 10
-14.6
 20
-35.5
 11
-14.6
 21
-43.5
  0
LINE
  8
0
 10
-14.6
 20
-43.5
 11
-3.14
 21
-43.5
  0
LINE
  8
0
 10
-3.14
 20
-43.5
 11
-3.14
 21
-46.5
  0
LINE
  8
0
 10
-3.14
 20
-46.5
 11
-0.5
 21
-46.5
  0
LINE
  8
0
 10
-0.5
 20
-46.5
 11
-0.475525
 21
-46.3455
  0
LINE
  8
0
 10
-0.475525
 20
-46.3455
 11
-0.404495
 21
-46.2061
  0
LINE
  8
0
 10
-0.404495
 20
-46.2061
 11
-0.293884
 21
-46.0955
  0
LINE
  8
0
 10
-0.293884
 20
-46.0955
 11
-0.154495
 21
-46.0245
  0
LINE
  8
0
 10
-0.154495
 20
-46.0245
 11
0
 21
-46
  0
LINE
  8
0
 10
0
 20
-46
 11
0.154495
 21
-46.0245
  0
LINE
  8
0
 10
0.154495
 20
-46.0245
 11
0.293884
 21
-46.0955
  0
LINE
  8
0
 10
0.293884
 20
-46.0955
 11
0.404495
 21
-46.2061
  0
LINE
  8
0
 10
0.404495
 20
-46.2061
 11
0.475525
 21
-46.3455
  0
LINE
  8
0
 10
0.475525
 20
-46.3455
 11
0.5
 21
-46.5
  0
LINE
  8
0
 10
0.5
 20
-46.5
 11
0.475525
 21
-46.6545
  0
LINE
  8
0
 10
0.475525
 20
-46.6545
 11
0.404495
 21
-46.7939
  0
LINE
  8
0
 10
0.404495
 20
-46.7939
 11
0.293884
 21
-46.9045
  0
LINE
  8
0
 10
0.293884
 20
-46.9045
 11
0.154495
 21
-46.9755
  0
LINE
  8
0
 10
0.154495
 20
-46.9755
 11
0
 21
-47
  0
LINE
  8
0
 10
0
 20
-47
 11
0
 21
-54.5
  0
LINE
  8
0
 10
0
 20
-54.5
 11
0.154495
 21
-54.5245
  0
LINE
  8
0
 10
0.154495
 20
-54.5245
 11
0.293884
 21
-54.5955
  0
LINE
  8
0
 10
0.293884
 20
-54.5955
 11
0.404495
 21
-54.7061
  0
LINE
  8
0
 10
0.404495
 20
-54.7061
 11
0.475525
 21
-54.8455
  0
LINE
  8
0
 10
0.475525
 20
-54.8455
 11
0.5
 21
-55
  0
LINE
  8
0
 10
0.5
 20
-55
 11
0.475525
 21
-55.1545
  0
LINE
  8
0
 10
0.475525
 20
-55.1545
 11
0.404495
 21
-55.2939
  0
LINE
  8
0
 10
0.404495
 20
-55.2939
 11
0.293884
 21
-55.4045
  0
LINE
  8
0
 10
0.293884
 20
-55.4045
 11
0.154495
 21
-55.4755
  0
LINE
  8
0
 10
0.154495
 20
-55.4755
 11
0
 21
-55.5
  0
LINE
  8
0
 10
0
 20
-55.5
 11
-0.154495
 21
-55.4755
  0
LINE
  8
0
 10
-0.154495
 20
-55.4755
 11
-0.293884
 21
-55.4045
  0
LINE
  8
0
 10
-0.293884
 20
-55.4045
 11
-0.404495
 21
-55.2939
  0
LINE
  8
0
 10
-0.404495
 20
-55.2939
 11
-0.475525
 21
-55.1545
  0
LINE
  8
0
 10
-0.475525
 20
-55.1545
 11
-0.5
 21
-55
  0
LINE
  8
0
 10
-0.5
 20
-55
 11
-14.6
 21
-55
  0
LINE
  8
0
 10
-14.6
 20
-55
 11
-14.6
 21
-68.5
  0
LINE
  8
0
 10
-14.6
 20
-68.5
 11
-14.5755
 21
-68.6545
  0
LINE
  8
0
 10
-14.5755
 20
-68.6545
 11
-14.5045
 21
-68.7939
  0
LINE
  8
0
 10
-14.5045
 20
-68.7939
 11
-14.3939
 21
-68.9045
  0
LINE
  8
0
 10
-14.3939
 20
-68.9045
 11
-14.2545
 21
-68.9755
  0
LINE
  8
0
 10
-14.2545
 20
-68.9755
 11
-14.1
 21
-69
  0
LINE
  8
0
 10
-14.1
 20
-69
 11
-0.5
 21
-69
  0
LINE
  8
0
 10
-0.5
 20
-69
 11
-0.475525
 21
-68.8455
  0
LINE
  8
0
 10
-0.475525
 20
-68.8455
 11
-0.404495
 21
-68.7061
  0
LINE
  8
0
 10
-0.404495
 20
-68.7061
 11
-0.293884
 21
-68.5955
  0
LINE
  8
0
 10
-0.293884
 20
-68.5955
 11
-0.154495
 21
-68.5245
  0
LINE
  8
0
 10
-0.154495
 20
-68.5245
 11
0
 21
-68.5
  0
LINE
  8
0
 10
0
 20
-68.5
 11
0.154495
 21
-68.5245
  0
LINE
  8
0
 10
0.154495
 20
-68.5245
 11
0.293884
 21
-68.5955
  0
LINE
  8
0
 10
0.293884
 20
-68.5955
 11
0.404495
 21
-68.7061
  0
LINE
  8
0
 10
0.404495
 20
-68.7061
 11
0.475525
 21
-68.8455
  0
LINE
  8
0
 10
0.475525
 20
-68.8455
 11
0.5
 21
-69
  0
LINE
  8
0
 10
0.5
 20
-69
 11
104
 21
-69
  0
LINE
  8
0
 10
104
 20
-69
 11
104.155
 21
-68.9755
  0
LINE
  8
0
 10
104.155
 20
-68.9755
 11
104.294
 21
-68.9045
  0
LINE
  8
0
 10
104.294
 20
-68.9045
 11
104.405
 21
-68.7939
  0
LINE
  8
0
 10
104.405
 20
-68.7939
 11
104.476
 21
-68.6545
  0
LINE
  8
0
 10
104.476
 20
-68.6545
 11
104.5
 21
-68.5
  0
LINE
  8
0
 10
104.5
 20
-68.5
 11
104.5
 21
-59.75
  0
LINE
  8
0
 10
104.5
 20
-59.75
 11
104.345
 21
-59.7255
  0
LINE
  8
0
 10
104.345
 20
-59.7255
 11
104.206
 21
-59.6545
  0
LINE
  8
0
 10
104.206
 20
-59.6545
 11
104.095
 21
-59.5439
  0
LINE
  8
0
 10
104.095
 20
-59.5439
 11
104.024
 21
-59.4045
  0
LINE
  8
0
 10
104.024
 20
-59.4045
 11
104
 21
-59.25
  0
LINE
  8
0
 10
104
 20
-59.25
 11
104.024
 21
-59.0955
  0
LINE
  8
0
 10
104.024
 20
-59.0955
 11
104.095
 21
-58.9561
  0
LINE
  8
0
 10
104.095
 20
-58.9561
 11
104.206
 21
-58.8455
  0
LINE
  8
0
 10
104.206
 20
-58.8455
 11
104.345
 21
-58.7745
  0
LINE
  8
0
 10
104.345
 20
-58.7745
 11
104.5
 21
-58.75
  0
LINE
  8
0
 10
104.5
 20
-58.75
 11
104.655
 21
-58.7745
  0
LINE
  8
0
 10
104.655
 20
-58.7745
 11
104.794
 21
-58.8455
  0
LINE
  8
0
 10
104.794
 20
-58.8455
 11
104.905
 21
-58.9561
  0
LINE
  8
0
 10
104.905
 20
-58.9561
 11
104.976
 21
-59.0955
  0
LINE
  8
0
 10
104.976
 20
-59.0955
 11
105
 21
-59.25
  0
LINE
  8
0
 10
105
 20
-59.25
 11
111.35
 21
-59.25
  0
LINE
  8
0
 10
111.35
 20
-59.25
 11
111.505
 21
-59.2255
  0
LINE
  8
0
 10
111.505
 20
-59.2255
 11
111.644
 21
-59.1545
  0
LINE
  8
0
 10
111.644
 20
-59.1545
 11
111.755
 21
-59.0439
  0
LINE
  8
0
 10
111.755
 20
-59.0439
 11
111.826
 21
-58.9045
  0
LINE
  8
0
 10
111.826
 20
-58.9045
 11
111.85
 21
-58.75
  0
LINE
  8
0
 10
111.85
 20
-58.75
 11
111.85
 21
-0.5
  0
LINE
  8
0
 10
111.85
 20
-0.5
 11
111.826
 21
-0.34549
  0
LINE
  8
0
 10
111.826
 20
-0.34549
 11
111.755
 21
-0.2061
  0
LINE
  8
0
 10
111.755
 20
-0.2061
 11
111.644
 21
-0.0954895
  0
LINE
  8
0
 10
111.644
 20
-0.0954895
 11
111.505
 21
-0.0244598
  0
LINE
  8
0
 10
111.505
 20
-0.0244598
 11
111.35
 21
0
  0
LINE
  8
0
 10
111.35
 20
0
 11
105
 21
0
  0
LINE
  8
0
 10
105
 20
0
 11
104.976
 21
-0.154495
  0
LINE
  8
0
 10
104.976
 20
-0.154495
 11
104.905
 21
-0.293884
  0
LINE
  8
0
 10
104.905
 20
-0.293884
 11
104.794
 21
-0.404495
  0
LINE
  8
0
 10
104.794
 20
-0.404495
 11
104.655
 21
-0.475525
  0
LINE
  8
0
 10
104.655
 20
-0.475525
 11
104.5
 21
-0.5
  0
LINE
  8
0
 10
104.5
 20
-0.5
 11
104.345
 21
-0.475525
  0
LINE
  8
0
 10
104.345
 20
-0.475525
 11
104.206
 21
-0.404495
  0
LINE
  8
0
 10
104.206
 20
-0.404495
 11
104.095
 21
-0.293884
  0
LINE
  8
0
 10
104.095
 20
-0.293884
 11
104.024
 21
-0.154495
  0
LINE
  8
0
 10
104.024
 20
-0.154495
 11
104
 21
0
  0
LINE
  8
0
 10
104
 20
0
 11
104.024
 21
0.154495
  0
LINE
  8
0
 10
104.024
 20
0.154495
 11
104.095
 21
0.293884
  0
LINE
  8
0
 10
104.095
 20
0.293884
 11
104.206
 21
0.404495
  0
LINE
  8
0
 10
104.206
 20
0.404495
 11
104.345
 21
0.475525
  0
LINE
  8
0
 10
104.345
 20
0.475525
 11
104.5
 21
0.5
  0
LINE
  8
0
 10
104.5
 20
0.5
 11
104.5
 21
45.5
  0
LINE
  8
0
 10
104.5
 20
45.5
 11
104.345
 21
45.5245
  0
LINE
  8
0
 10
104.345
 20
45.5245
 11
104.206
 21
45.5955
  0
LINE
  8
0
 10
78.5955
 20
45.7061
 11
78.5245
 21
45.8455
  0
LINE
  8
0
 10
78.5245
 20
45.8455
 11
78.5
 21
46
  0
LINE
  8
0
 10
78.5
 20
46
 11
78.5245
 21
46.1545
  0
LINE
  8
0
 10
78.5245
 20
46.1545
 11
78.5955
 21
46.2939
  0
LINE
  8
0
 10
78.5955
 20
46.2939
 11
78.7061
 21
46.4045
  0
LINE
  8
0
 10
78.7061
 20
46.4045
 11
78.8455
 21
46.4755
  0
LINE
  8
0
 10
78.8455
 20
46.4755
 11
79
 21
46.5
  0
LINE
  8
0
 10
79
 20
46.5
 11
102
 21
46.5
  0
LINE
  8
0
 10
102
 20
46.5
 11
102.155
 21
46.4755
  0
LINE
  8
0
 10
102.155
 20
46.4755
 11
102.294
 21
46.4045
  0
LINE
  8
0
 10
102.294
 20
46.4045
 11
102.405
 21
46.2939
  0
LINE
  8
0
 10
102.405
 20
46.2939
 11
102.476
 21
46.1545
  0
LINE
  8
0
 10
102.476
 20
46.1545
 11
102.5
 21
46
  0
LINE
  8
0
 10
102.5
 20
46
 11
102.476
 21
45.8455
  0
LINE
  8
0
 10
102.476
 20
45.8455
 11
102.405
 21
45.7061
  0
LINE
  8
0
 10
102.405
 20
45.7061
 11
102.294
 21
45.5955
  0
LINE
  8
0
 10
102.294
 20
45.5955
 11
102.155
 21
45.5245
  0
LINE
  8
0
 10
102.155
 20
45.5245
 11
102
 21
45.5
  0
LINE
  8
0
 10
102
 20
45.5
 11
79
 21
45.5
  0
LINE
  8
0
 10
79
 20
45.5
 11
78.8455
 21
45.5245
  0
LINE
  8
0
 10
78.8455
 20
45.5245
 11
78.7061
 21
45.5955
  0
LINE
  8
0
 10
78.7061
 20
45.5955
 11
78.5955
 21
45.7061
  0
LINE
  8
0
 10
-5.54077
 20
110.736
 11
-6.02861
 21
110.984
  0
LINE
  8
0
 10
-6.02861
 20
110.984
 11
-6.41577
 21
111.371
  0
LINE
  8
0
 10
-6.41577
 20
111.371
 11
-6.66434
 21
111.859
  0
LINE
  8
0
 10
-6.66434
 20
111.859
 11
-6.75
 21
112.4
  0
LINE
  8
0
 10
-6.75
 20
112.4
 11
-6.66434
 21
112.941
  0
LINE
  8
0
 10
-6.66434
 20
112.941
 11
-6.41577
 21
113.429
  0
LINE
  8
0
 10
-6.41577
 20
113.429
 11
-6.02861
 21
113.816
  0
LINE
  8
0
 10
-6.02861
 20
113.816
 11
-5.54077
 21
114.064
  0
LINE
  8
0
 10
-5.54077
 20
114.064
 11
-5
 21
114.15
  0
LINE
  8
0
 10
-5
 20
114.15
 11
-4.45921
 21
114.064
  0
LINE
  8
0
 10
-4.45921
 20
114.064
 11
-3.97137
 21
113.816
  0
LINE
  8
0
 10
-3.97137
 20
113.816
 11
-3.58421
 21
113.429
  0
LINE
  8
0
 10
-3.58421
 20
113.429
 11
-3.33565
 21
112.941
  0
LINE
  8
0
 10
-3.33565
 20
112.941
 11
-3.25
 21
112.4
  0
LINE
  8
0
 10
-3.25
 20
112.4
 11
-3.33565
 21
111.859
  0
LINE
  8
0
 10
-3.33565
 20
111.859
 11
-3.58421
 21
111.371
  0
LINE
  8
0
 10
-3.58421
 20
111.371
 11
-3.97137
 21
110.984
  0
LINE
  8
0
 10
-3.97137
 20
110.984
 11
-4.45921
 21
110.736
  0
LINE
  8
0
 10
-4.45921
 20
110.736
 11
-5
 21
110.65
  0
LINE
  8
0
 10
-5
 20
110.65
 11
-5.54077
 21
110.736
  0
LINE
  8
0
 10
-0.154495
 20
103.024
 11
-0.293884
 21
103.095
  0
LINE
  8
0
 10
-0.293884
 20
103.095
 11
-0.404495
 21
103.206
  0
LINE
  8
0
 10
-0.404495
 20
103.206
 11
-0.475525
 21
103.345
  0
LINE
  8
0
 10
-0.475525
 20
103.345
 11
-0.5
 21
103.5
  0
LINE
  8
0
 10
-0.5
 20
103.5
 11
-0.5
 21
112.5
  0
LINE
  8
0
 10
-0.5
 20
112.5
 11
-0.475525
 21
112.655
  0
LINE
  8
0
 10
-0.475525
 20
112.655
 11
-0.404495
 21
112.794
  0
LINE
  8
0
 10
-0.404495
 20
112.794
 11
-0.293884
 21
112.905
  0
LINE
  8
0
 10
-0.293884
 20
112.905
 11
-0.154495
 21
112.976
  0
LINE
  8
0
 10
-0.154495
 20
112.976
 11
0
 21
113
  0
LINE
  8
0
 10
0
 20
113
 11
0.154495
 21
112.976
  0
LINE
  8
0
 10
0.154495
 20
112.976
 11
0.293884
 21
112.905
  0
LINE
  8
0
 10
0.293884
 20
112.905
 11
0.404495
 21
112.794
  0
LINE
  8
0
 10
0.404495
 20
112.794
 11
0.475525
 21
112.655
  0
LINE
  8
0
 10
0.475525
 20
112.655
 11
0.5
 21
112.5
  0
LINE
  8
0
 10
0.5
 20
112.5
 11
0.5
 21
103.5
  0
LINE
  8
0
 10
0.5
 20
103.5
 11
0.475525
 21
103.345
  0
LINE
  8
0
 10
0.475525
 20
103.345
 11
0.404495
 21
103.206
  0
LINE
  8
0
 10
0.404495
 20
103.206
 11
0.293884
 21
103.095
  0
LINE
  8
0
 10
0.293884
 20
103.095
 11
0.154495
 21
103.024
  0
LINE
  8
0
 10
0.154495
 20
103.024
 11
0
 21
103
  0
LINE
  8
0
 10
0
 20
103
 11
-0.154495
 21
103.024
  0
LINE
  8
0
 10
108.205
 20
100.11
 11
107.577
 21
100.43
  0
LINE
  8
0
 10
107.577
 20
100.43
 11
107.08
 21
100.927
  0
LINE
  8
0
 10
107.08
 20
100.927
 11
106.76
 21
101.555
  0
LINE
  8
0
 10
106.76
 20
101.555
 11
106.65
 21
102.25
  0
LINE
  8
0
 10
106.65
 20
102.25
 11
106.76
 21
102.945
  0
LINE
  8
0
 10
106.76
 20
102.945
 11
107.08
 21
103.573
  0
LINE
  8
0
 10
107.08
 20
103.573
 11
107.577
 21
104.07
  0
LINE
  8
0
 10
107.577
 20
104.07
 11
108.205
 21
104.39
  0
LINE
  8
0
 10
108.205
 20
104.39
 11
108.9
 21
104.5
  0
LINE
  8
0
 10
108.9
 20
104.5
 11
109.595
 21
104.39
  0
LINE
  8
0
 10
109.595
 20
104.39
 11
110.223
 21
104.07
  0
LINE
  8
0
 10
110.223
 20
104.07
 11
110.72
 21
103.573
  0
LINE
  8
0
 10
110.72
 20
103.573
 11
111.04
 21
102.945
  0
LINE
  8
0
 10
111.04
 20
102.945
 11
111.15
 21
102.25
  0
LINE
  8
0
 10
111.15
 20
102.25
 11
111.04
 21
101.555
  0
LINE
  8
0
 10
111.04
 20
101.555
 11
110.72
 21
100.927
  0
LINE
  8
0
 10
110.72
 20
100.927
 11
110.223
 21
100.43
  0
LINE
  8
0
 10
110.223
 20
100.43
 11
109.595
 21
100.11
  0
LINE
  8
0
 10
109.595
 20
100.11
 11
108.9
 21
100
  0
LINE
  8
0
 10
108.9
 20
100
 11
108.205
 21
100.11
  0
LINE
  8
0
 10
-23.7318
 20
102.137
 11
-23.9408
 21
102.243
  0
LINE
  8
0
 10
-23.9408
 20
102.243
 11
-24.1068
 21
102.409
  0
LINE
  8
0
 10
-24.1068
 20
102.409
 11
-24.2133
 21
102.618
  0
LINE
  8
0
 10
-24.2133
 20
102.618
 11
-24.25
 21
102.85
  0
LINE
  8
0
 10
-24.25
 20
102.85
 11
-24.2133
 21
103.082
  0
LINE
  8
0
 10
-24.2133
 20
103.082
 11
-24.1068
 21
103.291
  0
LINE
  8
0
 10
-24.1068
 20
103.291
 11
-23.9408
 21
103.457
  0
LINE
  8
0
 10
-23.9408
 20
103.457
 11
-23.7318
 21
103.563
  0
LINE
  8
0
 10
-23.7318
 20
103.563
 11
-23.5
 21
103.6
  0
LINE
  8
0
 10
-23.5
 20
103.6
 11
-23.2682
 21
103.563
  0
LINE
  8
0
 10
-23.2682
 20
103.563
 11
-23.0592
 21
103.457
  0
LINE
  8
0
 10
-23.0592
 20
103.457
 11
-22.8932
 21
103.291
  0
LINE
  8
0
 10
-22.8932
 20
103.291
 11
-22.7867
 21
103.082
  0
LINE
  8
0
 10
-22.7867
 20
103.082
 11
-22.75
 21
102.85
  0
LINE
  8
0
 10
-22.75
 20
102.85
 11
-22.7867
 21
102.618
  0
LINE
  8
0
 10
-22.7867
 20
102.618
 11
-22.8932
 21
102.409
  0
LINE
  8
0
 10
-22.8932
 20
102.409
 11
-23.0592
 21
102.243
  0
LINE
  8
0
 10
-23.0592
 20
102.243
 11
-23.2682
 21
102.137
  0
LINE
  8
0
 10
-23.2682
 20
102.137
 11
-23.5
 21
102.1
  0
LINE
  8
0
 10
-23.5
 20
102.1
 11
-23.7318
 21
102.137
  0
LINE
  8
0
 10
104.345
 20
76.3995
 11
104.206
 21
76.4705
  0
LINE
  8
0
 10
104.206
 20
76.4705
 11
104.095
 21
76.5811
  0
LINE
  8
0
 10
104.095
 20
76.5811
 11
104.024
 21
76.7205
  0
LINE
  8
0
 10
104.024
 20
76.7205
 11
104
 21
76.875
  0
LINE
  8
0
 10
104
 20
76.875
 11
104
 21
102.75
  0
LINE
  8
0
 10
104
 20
102.75
 11
104.024
 21
102.905
  0
LINE
  8
0
 10
104.024
 20
102.905
 11
104.095
 21
103.044
  0
LINE
  8
0
 10
104.095
 20
103.044
 11
104.206
 21
103.155
  0
LINE
  8
0
 10
104.206
 20
103.155
 11
104.345
 21
103.226
  0
LINE
  8
0
 10
104.345
 20
103.226
 11
104.5
 21
103.25
  0
LINE
  8
0
 10
104.5
 20
103.25
 11
104.655
 21
103.226
  0
LINE
  8
0
 10
104.655
 20
103.226
 11
104.794
 21
103.155
  0
LINE
  8
0
 10
104.794
 20
103.155
 11
104.905
 21
103.044
  0
LINE
  8
0
 10
104.905
 20
103.044
 11
104.976
 21
102.905
  0
LINE
  8
0
 10
104.976
 20
102.905
 11
105
 21
102.75
  0
LINE
  8
0
 10
105
 20
102.75
 11
105
 21
76.875
  0
LINE
  8
0
 10
105
 20
76.875
 11
104.976
 21
76.7205
  0
LINE
  8
0
 10
104.976
 20
76.7205
 11
104.905
 21
76.5811
  0
LINE
  8
0
 10
104.905
 20
76.5811
 11
104.794
 21
76.4705
  0
LINE
  8
0
 10
104.794
 20
76.4705
 11
104.655
 21
76.3995
  0
LINE
  8
0
 10
104.655
 20
76.3995
 11
104.5
 21
76.375
  0
LINE
  8
0
 10
104.5
 20
76.375
 11
104.345
 21
76.3995
  0
LINE
  8
0
 10
-0.154495
 20
93.0245
 11
-0.293884
 21
93.0955
  0
LINE
  8
0
 10
-0.293884
 20
93.0955
 11
-0.404495
 21
93.2061
  0
LINE
  8
0
 10
-0.404495
 20
93.2061
 11
-0.475525
 21
93.3455
  0
LINE
  8
0
 10
-0.475525
 20
93.3455
 11
-0.5
 21
93.5
  0
LINE
  8
0
 10
-0.5
 20
93.5
 11
-9.25
 21
93.5
  0
LINE
  8
0
 10
-9.25
 20
93.5
 11
-9.25
 21
101
  0
LINE
  8
0
 10
-9.25
 20
101
 11
-0.5
 21
101
  0
LINE
  8
0
 10
-0.5
 20
101
 11
-0.475525
 21
101.155
  0
LINE
  8
0
 10
-0.475525
 20
101.155
 11
-0.404495
 21
101.294
  0
LINE
  8
0
 10
-0.404495
 20
101.294
 11
-0.293884
 21
101.405
  0
LINE
  8
0
 10
-0.293884
 20
101.405
 11
-0.154495
 21
101.476
  0
LINE
  8
0
 10
-0.154495
 20
101.476
 11
0
 21
101.5
  0
LINE
  8
0
 10
0
 20
101.5
 11
0.154495
 21
101.476
  0
LINE
  8
0
 10
0.154495
 20
101.476
 11
0.293884
 21
101.405
  0
LINE
  8
0
 10
0.293884
 20
101.405
 11
0.404495
 21
101.294
  0
LINE
  8
0
 10
0.404495
 20
101.294
 11
0.475525
 21
101.155
  0
LINE
  8
0
 10
0.475525
 20
101.155
 11
0.5
 21
101
  0
LINE
  8
0
 10
0.5
 20
101
 11
0.475525
 21
100.845
  0
LINE
  8
0
 10
0.475525
 20
100.845
 11
0.404495
 21
100.706
  0
LINE
  8
0
 10
0.404495
 20
100.706
 11
0.293884
 21
100.595
  0
LINE
  8
0
 10
0.293884
 20
100.595
 11
0.154495
 21
100.524
  0
LINE
  8
0
 10
0.154495
 20
100.524
 11
0
 21
100.5
  0
LINE
  8
0
 10
0
 20
100.5
 11
0
 21
94
  0
LINE
  8
0
 10
0
 20
94
 11
0.154495
 21
93.9755
  0
LINE
  8
0
 10
0.154495
 20
93.9755
 11
0.293884
 21
93.9045
  0
LINE
  8
0
 10
0.293884
 20
93.9045
 11
0.404495
 21
93.7939
  0
LINE
  8
0
 10
0.404495
 20
93.7939
 11
0.475525
 21
93.6545
  0
LINE
  8
0
 10
0.475525
 20
93.6545
 11
0.5
 21
93.5
  0
LINE
  8
0
 10
0.5
 20
93.5
 11
0.475525
 21
93.3455
  0
LINE
  8
0
 10
0.475525
 20
93.3455
 11
0.404495
 21
93.2061
  0
LINE
  8
0
 10
0.404495
 20
93.2061
 11
0.293884
 21
93.0955
  0
LINE
  8
0
 10
0.293884
 20
93.0955
 11
0.154495
 21
93.0245
  0
LINE
  8
0
 10
0.154495
 20
93.0245
 11
0
 21
93
  0
LINE
  8
0
 10
0
 20
93
 11
-0.154495
 21
93.0245
  0
LINE
  8
0
 10
-0.154495
 20
48.0245
 11
-0.293884
 21
48.0955
  0
LINE
  8
0
 10
-0.293884
 20
48.0955
 11
-0.404495
 21
48.2061
  0
LINE
  8
0
 10
-0.404495
 20
48.2061
 11
-0.475525
 21
48.3455
  0
LINE
  8
0
 10
-0.475525
 20
48.3455
 11
-0.5
 21
48.5
  0
LINE
  8
0
 10
-0.5
 20
48.5
 11
-0.5
 21
91
  0
LINE
  8
0
 10
-0.5
 20
91
 11
-0.475525
 21
91.1545
  0
LINE
  8
0
 10
-0.475525
 20
91.1545
 11
-0.404495
 21
91.2939
  0
LINE
  8
0
 10
-0.404495
 20
91.2939
 11
-0.293884
 21
91.4045
  0
LINE
  8
0
 10
-0.293884
 20
91.4045
 11
-0.154495
 21
91.4755
  0
LINE
  8
0
 10
-0.154495
 20
91.4755
 11
0
 21
91.5
  0
LINE
  8
0
 10
0
 20
91.5
 11
0.154495
 21
91.4755
  0
LINE
  8
0
 10
0.154495
 20
91.4755
 11
0.293884
 21
91.4045
  0
LINE
  8
0
 10
0.293884
 20
91.4045
 11
0.404495
 21
91.2939
  0
LINE
  8
0
 10
0.404495
 20
91.2939
 11
0.475525
 21
91.1545
  0
LINE
  8
0
 10
0.475525
 20
91.1545
 11
0.5
 21
91
  0
LINE
  8
0
 10
0.5
 20
91
 11
0.5
 21
48.5
  0
LINE
  8
0
 10
0.5
 20
48.5
 11
0.475525
 21
48.3455
  0
LINE
  8
0
 10
0.475525
 20
48.3455
 11
0.404495
 21
48.2061
  0
LINE
  8
0
 10
0.404495
 20
48.2061
 11
0.293884
 21
48.0955
  0
LINE
  8
0
 10
0.293884
 20
48.0955
 11
0.154495
 21
48.0245
  0
LINE
  8
0
 10
0.154495
 20
48.0245
 11
0
 21
48
  0
LINE
  8
0
 10
0
 20
48
 11
-0.154495
 21
48.0245
  0
LINE
  8
0
 10
104.345
 20
48.0245
 11
104.206
 21
48.0955
  0
LINE
  8
0
 10
104.206
 20
48.0955
 11
104.095
 21
48.2061
  0
LINE
  8
0
 10
104.095
 20
48.2061
 11
104.024
 21
48.3455
  0
LINE
  8
0
 10
104.024
 20
48.3455
 11
104
 21
48.5
  0
LINE
  8
0
 10
104
 20
48.5
 11
104
 21
74.375
  0
LINE
  8
0
 10
104
 20
74.375
 11
104.024
 21
74.5295
  0
LINE
  8
0
 10
104.024
 20
74.5295
 11
104.095
 21
74.6689
  0
LINE
  8
0
 10
104.095
 20
74.6689
 11
104.206
 21
74.7795
  0
LINE
  8
0
 10
104.206
 20
74.7795
 11
104.345
 21
74.8505
  0
LINE
  8
0
 10
104.345
 20
74.8505
 11
104.5
 21
74.875
  0
LINE
  8
0
 10
104.5
 20
74.875
 11
104.655
 21
74.8505
  0
LINE
  8
0
 10
104.655
 20
74.8505
 11
104.794
 21
74.7795
  0
LINE
  8
0
 10
104.794
 20
74.7795
 11
104.905
 21
74.6689
  0
LINE
  8
0
 10
104.905
 20
74.6689
 11
104.976
 21
74.5295
  0
LINE
  8
0
 10
104.976
 20
74.5295
 11
105
 21
74.375
  0
LINE
  8
0
 10
105
 20
74.375
 11
105
 21
48.5
  0
LINE
  8
0
 10
105
 20
48.5
 11
104.976
 21
48.3455
  0
LINE
  8
0
 10
104.976
 20
48.3455
 11
104.905
 21
48.2061
  0
LINE
  8
0
 10
104.905
 20
48.2061
 11
104.794
 21
48.0955
  0
LINE
  8
0
 10
104.794
 20
48.0955
 11
104.655
 21
48.0245
  0
LINE
  8
0
 10
104.655
 20
48.0245
 11
104.5
 21
48
  0
LINE
  8
0
 10
104.5
 20
48
 11
104.345
 21
48.0245
  0
LINE
  8
0
 10
2.5
 20
45.5
 11
2.34549
 21
45.5245
  0
LINE
  8
0
 10
2.34549
 20
45.5245
 11
2.2061
 21
45.5955
  0
LINE
  8
0
 10
2.2061
 20
45.5955
 11
2.09549
 21
45.7061
  0
LINE
  8
0
 10
2.09549
 20
45.7061
 11
2.02446
 21
45.8455
  0
LINE
  8
0
 10
2.02446
 20
45.8455
 11
2
 21
46
  0
LINE
  8
0
 10
2
 20
46
 11
2.02446
 21
46.1545
  0
LINE
  8
0
 10
2.02446
 20
46.1545
 11
2.09549
 21
46.2939
  0
LINE
  8
0
 10
2.09549
 20
46.2939
 11
2.2061
 21
46.4045
  0
LINE
  8
0
 10
2.2061
 20
46.4045
 11
2.34549
 21
46.4755
  0
LINE
  8
0
 10
2.34549
 20
46.4755
 11
2.5
 21
46.5
  0
LINE
  8
0
 10
2.5
 20
46.5
 11
25.5
 21
46.5
  0
LINE
  8
0
 10
25.5
 20
46.5
 11
25.6545
 21
46.4755
  0
LINE
  8
0
 10
25.6545
 20
46.4755
 11
25.7939
 21
46.4045
  0
LINE
  8
0
 10
25.7939
 20
46.4045
 11
25.9045
 21
46.2939
  0
LINE
  8
0
 10
25.9045
 20
46.2939
 11
25.9755
 21
46.1545
  0
LINE
  8
0
 10
25.9755
 20
46.1545
 11
26
 21
46
  0
LINE
  8
0
 10
26
 20
46
 11
25.9755
 21
45.8455
  0
LINE
  8
0
 10
25.9755
 20
45.8455
 11
25.9045
 21
45.7061
  0
LINE
  8
0
 10
25.9045
 20
45.7061
 11
25.7939
 21
45.5955
  0
LINE
  8
0
 10
25.7939
 20
45.5955
 11
25.6545
 21
45.5245
  0
LINE
  8
0
 10
25.6545
 20
45.5245
 11
25.5
 21
45.5
  0
LINE
  8
0
 10
25.5
 20
45.5
 11
2.5
 21
45.5
  0
LINE
  8
0
 10
28
 20
45.5
 11
27.8455
 21
45.5245
  0
LINE
  8
0
 10
27.8455
 20
45.5245
 11
27.7061
 21
45.5955
  0
LINE
  8
0
 10
27.7061
 20
45.5955
 11
27.5955
 21
45.7061
  0
LINE
  8
0
 10
27.5955
 20
45.7061
 11
27.5245
 21
45.8455
  0
LINE
  8
0
 10
27.5245
 20
45.8455
 11
27.5
 21
46
  0
LINE
  8
0
 10
27.5
 20
46
 11
27.5245
 21
46.1545
  0
LINE
  8
0
 10
27.5245
 20
46.1545
 11
27.5955
 21
46.2939
  0
LINE
  8
0
 10
27.5955
 20
46.2939
 11
27.7061
 21
46.4045
  0
LINE
  8
0
 10
27.7061
 20
46.4045
 11
27.8455
 21
46.4755
  0
LINE
  8
0
 10
27.8455
 20
46.4755
 11
28
 21
46.5
  0
LINE
  8
0
 10
28
 20
46.5
 11
51
 21
46.5
  0
LINE
  8
0
 10
51
 20
46.5
 11
51.1545
 21
46.4755
  0
LINE
  8
0
 10
51.1545
 20
46.4755
 11
51.2939
 21
46.4045
  0
LINE
  8
0
 10
51.2939
 20
46.4045
 11
51.4045
 21
46.2939
  0
LINE
  8
0
 10
51.4045
 20
46.2939
 11
51.4755
 21
46.1545
  0
LINE
  8
0
 10
51.4755
 20
46.1545
 11
51.5
 21
46
  0
LINE
  8
0
 10
51.5
 20
46
 11
51.4755
 21
45.8455
  0
LINE
  8
0
 10
51.4755
 20
45.8455
 11
51.4045
 21
45.7061
  0
LINE
  8
0
 10
51.4045
 20
45.7061
 11
51.2939
 21
45.5955
  0
LINE
  8
0
 10
51.2939
 20
45.5955
 11
51.1545
 21
45.5245
  0
LINE
  8
0
 10
51.1545
 20
45.5245
 11
51
 21
45.5
  0
LINE
  8
0
 10
51
 20
45.5
 11
28
 21
45.5
  0
LINE
  8
0
 10
9.25
 20
7.34999
 11
9.25
 21
14.85
  0
LINE
  8
0
 10
9.25
 20
14.85
 11
41.25
 21
14.85
  0
LINE
  8
0
 10
41.25
 20
14.85
 11
41.25
 21
7.34999
  0
LINE
  8
0
 10
41.25
 20
7.34999
 11
9.25
 21
7.34999
  0
LINE
  8
0
 10
41.5
 20
7.34999
 11
41.5
 21
12.85
  0
LINE
  8
0
 10
41.5
 20
12.85
 11
57.25
 21
12.85
  0
LINE
  8
0
 10
57.25
 20
12.85
 11
57.25
 21
7.34999
  0
LINE
  8
0
 10
57.25
 20
7.34999
 11
41.5
 21
7.34999
  0
LINE
  8
0
 10
61.25
 20
3
 11
60.7092
 21
3.08565
  0
LINE
  8
0
 10
60.7092
 20
3.08565
 11
60.2214
 21
3.33421
  0
LINE
  8
0
 10
60.2214
 20
3.33421
 11
59.8342
 21
3.72137
  0
LINE
  8
0
 10
59.8342
 20
3.72137
 11
59.5856
 21
4.20921
  0
LINE
  8
0
 10
59.5856
 20
4.20921
 11
59.5
 21
4.75
  0
LINE
  8
0
 10
59.5
 20
4.75
 11
59.5856
 21
5.29077
  0
LINE
  8
0
 10
59.5856
 20
5.29077
 11
59.8342
 21
5.77861
  0
LINE
  8
0
 10
59.8342
 20
5.77861
 11
60.2214
 21
6.16577
  0
LINE
  8
0
 10
60.2214
 20
6.16577
 11
60.7092
 21
6.41434
  0
LINE
  8
0
 10
60.7092
 20
6.41434
 11
61.25
 21
6.5
  0
LINE
  8
0
 10
61.25
 20
6.5
 11
67.75
 21
6.5
  0
LINE
  8
0
 10
67.75
 20
6.5
 11
68.2908
 21
6.41434
  0
LINE
  8
0
 10
68.2908
 20
6.41434
 11
68.7786
 21
6.16577
  0
LINE
  8
0
 10
68.7786
 20
6.16577
 11
69.1658
 21
5.77861
  0
LINE
  8
0
 10
69.1658
 20
5.77861
 11
69.4144
 21
5.29077
  0
LINE
  8
0
 10
69.4144
 20
5.29077
 11
69.5
 21
4.75
  0
LINE
  8
0
 10
69.5
 20
4.75
 11
69.4144
 21
4.20921
  0
LINE
  8
0
 10
69.4144
 20
4.20921
 11
69.1658
 21
3.72137
  0
LINE
  8
0
 10
69.1658
 20
3.72137
 11
68.7786
 21
3.33421
  0
LINE
  8
0
 10
68.7786
 20
3.33421
 11
68.2908
 21
3.08565
  0
LINE
  8
0
 10
68.2908
 20
3.08565
 11
67.75
 21
3
  0
LINE
  8
0
 10
67.75
 20
3
 11
61.25
 21
3
  0
LINE
  8
0
 10
43.7682
 20
4.7867
 11
43.5592
 21
4.89323
  0
LINE
  8
0
 10
43.5592
 20
4.89323
 11
43.3932
 21
5.05916
  0
LINE
  8
0
 10
43.3932
 20
5.05916
 11
43.2867
 21
5.26823
  0
LINE
  8
0
 10
43.2867
 20
5.26823
 11
43.25
 21
5.5
  0
LINE
  8
0
 10
43.25
 20
5.5
 11
43.2867
 21
5.73175
  0
LINE
  8
0
 10
43.2867
 20
5.73175
 11
43.3932
 21
5.94083
  0
LINE
  8
0
 10
43.3932
 20
5.94083
 11
43.5592
 21
6.10675
  0
LINE
  8
0
 10
43.5592
 20
6.10675
 11
43.7682
 21
6.21329
  0
LINE
  8
0
 10
43.7682
 20
6.21329
 11
44
 21
6.25
  0
LINE
  8
0
 10
44
 20
6.25
 11
44.2318
 21
6.21329
  0
LINE
  8
0
 10
44.2318
 20
6.21329
 11
44.4408
 21
6.10675
  0
LINE
  8
0
 10
44.4408
 20
6.10675
 11
44.6068
 21
5.94083
  0
LINE
  8
0
 10
44.6068
 20
5.94083
 11
44.7133
 21
5.73175
  0
LINE
  8
0
 10
44.7133
 20
5.73175
 11
44.75
 21
5.5
  0
LINE
  8
0
 10
44.75
 20
5.5
 11
44.7133
 21
5.26823
  0
LINE
  8
0
 10
44.7133
 20
5.26823
 11
44.6068
 21
5.05916
  0
LINE
  8
0
 10
44.6068
 20
5.05916
 11
44.4408
 21
4.89323
  0
LINE
  8
0
 10
44.4408
 20
4.89323
 11
44.2318
 21
4.7867
  0
LINE
  8
0
 10
44.2318
 20
4.7867
 11
44
 21
4.75
  0
LINE
  8
0
 10
44
 20
4.75
 11
43.7682
 21
4.7867
  0
LINE
  8
0
 10
25.7682
 20
4.7867
 11
25.5592
 21
4.89323
  0
LINE
  8
0
 10
25.5592
 20
4.89323
 11
25.3932
 21
5.05916
  0
LINE
  8
0
 10
25.3932
 20
5.05916
 11
25.2867
 21
5.26823
  0
LINE
  8
0
 10
25.2867
 20
5.26823
 11
25.25
 21
5.5
  0
LINE
  8
0
 10
25.25
 20
5.5
 11
25.2867
 21
5.73175
  0
LINE
  8
0
 10
25.2867
 20
5.73175
 11
25.3932
 21
5.94083
  0
LINE
  8
0
 10
25.3932
 20
5.94083
 11
25.5592
 21
6.10675
  0
LINE
  8
0
 10
25.5592
 20
6.10675
 11
25.7682
 21
6.21329
  0
LINE
  8
0
 10
25.7682
 20
6.21329
 11
26
 21
6.25
  0
LINE
  8
0
 10
26
 20
6.25
 11
26.2318
 21
6.21329
  0
LINE
  8
0
 10
26.2318
 20
6.21329
 11
26.4408
 21
6.10675
  0
LINE
  8
0
 10
26.4408
 20
6.10675
 11
26.6068
 21
5.94083
  0
LINE
  8
0
 10
26.6068
 20
5.94083
 11
26.7133
 21
5.73175
  0
LINE
  8
0
 10
26.7133
 20
5.73175
 11
26.75
 21
5.5
  0
LINE
  8
0
 10
26.75
 20
5.5
 11
26.7133
 21
5.26823
  0
LINE
  8
0
 10
26.7133
 20
5.26823
 11
26.6068
 21
5.05916
  0
LINE
  8
0
 10
26.6068
 20
5.05916
 11
26.4408
 21
4.89323
  0
LINE
  8
0
 10
26.4408
 20
4.89323
 11
26.2318
 21
4.7867
  0
LINE
  8
0
 10
26.2318
 20
4.7867
 11
26
 21
4.75
  0
LINE
  8
0
 10
26
 20
4.75
 11
25.7682
 21
4.7867
  0
LINE
  8
0
 10
15.2682
 20
4.7867
 11
15.0592
 21
4.89323
  0
LINE
  8
0
 10
15.0592
 20
4.89323
 11
14.8932
 21
5.05916
  0
LINE
  8
0
 10
14.8932
 20
5.05916
 11
14.7867
 21
5.26823
  0
LINE
  8
0
 10
14.7867
 20
5.26823
 11
14.75
 21
5.5
  0
LINE
  8
0
 10
14.75
 20
5.5
 11
14.7867
 21
5.73175
  0
LINE
  8
0
 10
14.7867
 20
5.73175
 11
14.8932
 21
5.94083
  0
LINE
  8
0
 10
14.8932
 20
5.94083
 11
15.0592
 21
6.10675
  0
LINE
  8
0
 10
15.0592
 20
6.10675
 11
15.2682
 21
6.21329
  0
LINE
  8
0
 10
15.2682
 20
6.21329
 11
15.5
 21
6.25
  0
LINE
  8
0
 10
15.5
 20
6.25
 11
15.7318
 21
6.21329
  0
LINE
  8
0
 10
15.7318
 20
6.21329
 11
15.9408
 21
6.10675
  0
LINE
  8
0
 10
15.9408
 20
6.10675
 11
16.1068
 21
5.94083
  0
LINE
  8
0
 10
16.1068
 20
5.94083
 11
16.2133
 21
5.73175
  0
LINE
  8
0
 10
16.2133
 20
5.73175
 11
16.25
 21
5.5
  0
LINE
  8
0
 10
16.25
 20
5.5
 11
16.2133
 21
5.26823
  0
LINE
  8
0
 10
16.2133
 20
5.26823
 11
16.1068
 21
5.05916
  0
LINE
  8
0
 10
16.1068
 20
5.05916
 11
15.9408
 21
4.89323
  0
LINE
  8
0
 10
15.9408
 20
4.89323
 11
15.7318
 21
4.7867
  0
LINE
  8
0
 10
15.7318
 20
4.7867
 11
15.5
 21
4.75
  0
LINE
  8
0
 10
15.5
 20
4.75
 11
15.2682
 21
4.7867
  0
LINE
  8
0
 10
54.2682
 20
4.7867
 11
54.0592
 21
4.89323
  0
LINE
  8
0
 10
54.0592
 20
4.89323
 11
53.8932
 21
5.05916
  0
LINE
  8
0
 10
53.8932
 20
5.05916
 11
53.7867
 21
5.26823
  0
LINE
  8
0
 10
53.7867
 20
5.26823
 11
53.75
 21
5.5
  0
LINE
  8
0
 10
53.75
 20
5.5
 11
53.7867
 21
5.73175
  0
LINE
  8
0
 10
53.7867
 20
5.73175
 11
53.8932
 21
5.94083
  0
LINE
  8
0
 10
53.8932
 20
5.94083
 11
54.0592
 21
6.10675
  0
LINE
  8
0
 10
54.0592
 20
6.10675
 11
54.2682
 21
6.21329
  0
LINE
  8
0
 10
54.2682
 20
6.21329
 11
54.5
 21
6.25
  0
LINE
  8
0
 10
54.5
 20
6.25
 11
54.7318
 21
6.21329
  0
LINE
  8
0
 10
54.7318
 20
6.21329
 11
54.9408
 21
6.10675
  0
LINE
  8
0
 10
54.9408
 20
6.10675
 11
55.1068
 21
5.94083
  0
LINE
  8
0
 10
55.1068
 20
5.94083
 11
55.2133
 21
5.73175
  0
LINE
  8
0
 10
55.2133
 20
5.73175
 11
55.25
 21
5.5
  0
LINE
  8
0
 10
55.25
 20
5.5
 11
55.2133
 21
5.26823
  0
LINE
  8
0
 10
55.2133
 20
5.26823
 11
55.1068
 21
5.05916
  0
LINE
  8
0
 10
55.1068
 20
5.05916
 11
54.9408
 21
4.89323
  0
LINE
  8
0
 10
54.9408
 20
4.89323
 11
54.7318
 21
4.7867
  0
LINE
  8
0
 10
54.7318
 20
4.7867
 11
54.5
 21
4.75
  0
LINE
  8
0
 10
54.5
 20
4.75
 11
54.2682
 21
4.7867
  0
LINE
  8
0
 10
49.0182
 20
4.7867
 11
48.8092
 21
4.89323
  0
LINE
  8
0
 10
48.8092
 20
4.89323
 11
48.6432
 21
5.05916
  0
LINE
  8
0
 10
48.6432
 20
5.05916
 11
48.5367
 21
5.26823
  0
LINE
  8
0
 10
48.5367
 20
5.26823
 11
48.5
 21
5.5
  0
LINE
  8
0
 10
48.5
 20
5.5
 11
48.5367
 21
5.73175
  0
LINE
  8
0
 10
48.5367
 20
5.73175
 11
48.6432
 21
5.94083
  0
LINE
  8
0
 10
48.6432
 20
5.94083
 11
48.8092
 21
6.10675
  0
LINE
  8
0
 10
48.8092
 20
6.10675
 11
49.0182
 21
6.21329
  0
LINE
  8
0
 10
49.0182
 20
6.21329
 11
49.25
 21
6.25
  0
LINE
  8
0
 10
49.25
 20
6.25
 11
49.4818
 21
6.21329
  0
LINE
  8
0
 10
49.4818
 20
6.21329
 11
49.6908
 21
6.10675
  0
LINE
  8
0
 10
49.6908
 20
6.10675
 11
49.8568
 21
5.94083
  0
LINE
  8
0
 10
49.8568
 20
5.94083
 11
49.9633
 21
5.73175
  0
LINE
  8
0
 10
49.9633
 20
5.73175
 11
50
 21
5.5
  0
LINE
  8
0
 10
50
 20
5.5
 11
49.9633
 21
5.26823
  0
LINE
  8
0
 10
49.9633
 20
5.26823
 11
49.8568
 21
5.05916
  0
LINE
  8
0
 10
49.8568
 20
5.05916
 11
49.6908
 21
4.89323
  0
LINE
  8
0
 10
49.6908
 20
4.89323
 11
49.4818
 21
4.7867
  0
LINE
  8
0
 10
49.4818
 20
4.7867
 11
49.25
 21
4.75
  0
LINE
  8
0
 10
49.25
 20
4.75
 11
49.0182
 21
4.7867
  0
LINE
  8
0
 10
53.5
 20
-0.5
 11
53.3455
 21
-0.475525
  0
LINE
  8
0
 10
53.3455
 20
-0.475525
 11
53.2061
 21
-0.404495
  0
LINE
  8
0
 10
53.2061
 20
-0.404495
 11
53.0955
 21
-0.293884
  0
LINE
  8
0
 10
53.0955
 20
-0.293884
 11
53.0245
 21
-0.154495
  0
LINE
  8
0
 10
53.0245
 20
-0.154495
 11
53
 21
0
  0
LINE
  8
0
 10
53
 20
0
 11
53.0245
 21
0.154495
  0
LINE
  8
0
 10
53.0245
 20
0.154495
 11
53.0955
 21
0.293884
  0
LINE
  8
0
 10
53.0955
 20
0.293884
 11
53.2061
 21
0.404495
  0
LINE
  8
0
 10
53.2061
 20
0.404495
 11
53.3455
 21
0.475525
  0
LINE
  8
0
 10
53.3455
 20
0.475525
 11
53.5
 21
0.5
  0
LINE
  8
0
 10
53.5
 20
0.5
 11
76.5
 21
0.5
  0
LINE
  8
0
 10
76.5
 20
0.5
 11
76.6545
 21
0.475525
  0
LINE
  8
0
 10
76.6545
 20
0.475525
 11
76.7939
 21
0.404495
  0
LINE
  8
0
 10
76.7939
 20
0.404495
 11
76.9045
 21
0.293884
  0
LINE
  8
0
 10
76.9045
 20
0.293884
 11
76.9755
 21
0.154495
  0
LINE
  8
0
 10
76.9755
 20
0.154495
 11
77
 21
0
  0
LINE
  8
0
 10
77
 20
0
 11
76.9755
 21
-0.154495
  0
LINE
  8
0
 10
76.9755
 20
-0.154495
 11
76.9045
 21
-0.293884
  0
LINE
  8
0
 10
76.9045
 20
-0.293884
 11
76.7939
 21
-0.404495
  0
LINE
  8
0
 10
76.7939
 20
-0.404495
 11
76.6545
 21
-0.475525
  0
LINE
  8
0
 10
76.6545
 20
-0.475525
 11
76.5
 21
-0.5
  0
LINE
  8
0
 10
76.5
 20
-0.5
 11
53.5
 21
-0.5
  0
LINE
  8
0
 10
28
 20
-0.5
 11
27.8455
 21
-0.475525
  0
LINE
  8
0
 10
27.8455
 20
-0.475525
 11
27.7061
 21
-0.404495
  0
LINE
  8
0
 10
27.7061
 20
-0.404495
 11
27.5955
 21
-0.293884
  0
LINE
  8
0
 10
27.5955
 20
-0.293884
 11
27.5245
 21
-0.154495
  0
LINE
  8
0
 10
27.5245
 20
-0.154495
 11
27.5
 21
0
  0
LINE
  8
0
 10
27.5
 20
0
 11
27.5245
 21
0.154495
  0
LINE
  8
0
 10
27.5245
 20
0.154495
 11
27.5955
 21
0.293884
  0
LINE
  8
0
 10
27.5955
 20
0.293884
 11
27.7061
 21
0.404495
  0
LINE
  8
0
 10
27.7061
 20
0.404495
 11
27.8455
 21
0.475525
  0
LINE
  8
0
 10
27.8455
 20
0.475525
 11
28
 21
0.5
  0
LINE
  8
0
 10
28
 20
0.5
 11
51
 21
0.5
  0
LINE
  8
0
 10
51
 20
0.5
 11
51.1545
 21
0.475525
  0
LINE
  8
0
 10
51.1545
 20
0.475525
 11
51.2939
 21
0.404495
  0
LINE
  8
0
 10
51.2939
 20
0.404495
 11
51.4045
 21
0.293884
  0
LINE
  8
0
 10
51.4045
 20
0.293884
 11
51.4755
 21
0.154495
  0
LINE
  8
0
 10
51.4755
 20
0.154495
 11
51.5
 21
0
  0
LINE
  8
0
 10
51.5
 20
0
 11
51.4755
 21
-0.154495
  0
LINE
  8
0
 10
51.4755
 20
-0.154495
 11
51.4045
 21
-0.293884
  0
LINE
  8
0
 10
51.4045
 20
-0.293884
 11
51.2939
 21
-0.404495
  0
LINE
  8
0
 10
51.2939
 20
-0.404495
 11
51.1545
 21
-0.475525
  0
LINE
  8
0
 10
51.1545
 20
-0.475525
 11
51
 21
-0.5
  0
LINE
  8
0
 10
51
 20
-0.5
 11
28
 21
-0.5
  0
LINE
  8
0
 10
2.5
 20
-0.5
 11
2.34549
 21
-0.475525
  0
LINE
  8
0
 10
2.34549
 20
-0.475525
 11
2.2061
 21
-0.404495
  0
LINE
  8
0
 10
2.2061
 20
-0.404495
 11
2.09549
 21
-0.293884
  0
LINE
  8
0
 10
2.09549
 20
-0.293884
 11
2.02446
 21
-0.154495
  0
LINE
  8
0
 10
2.02446
 20
-0.154495
 11
2
 21
0
  0
LINE
  8
0
 10
2
 20
0
 11
2.02446
 21
0.154495
  0
LINE
  8
0
 10
2.02446
 20
0.154495
 11
2.09549
 21
0.293884
  0
LINE
  8
0
 10
2.09549
 20
0.293884
 11
2.2061
 21
0.404495
  0
LINE
  8
0
 10
2.2061
 20
0.404495
 11
2.34549
 21
0.475525
  0
LINE
  8
0
 10
2.34549
 20
0.475525
 11
2.5
 21
0.5
  0
LINE
  8
0
 10
2.5
 20
0.5
 11
25.5
 21
0.5
  0
LINE
  8
0
 10
25.5
 20
0.5
 11
25.6545
 21
0.475525
  0
LINE
  8
0
 10
25.6545
 20
0.475525
 11
25.7939
 21
0.404495
  0
LINE
  8
0
 10
25.7939
 20
0.404495
 11
25.9045
 21
0.293884
  0
LINE
  8
0
 10
25.9045
 20
0.293884
 11
25.9755
 21
0.154495
  0
LINE
  8
0
 10
25.9755
 20
0.154495
 11
26
 21
0
  0
LINE
  8
0
 10
26
 20
0
 11
25.9755
 21
-0.154495
  0
LINE
  8
0
 10
25.9755
 20
-0.154495
 11
25.9045
 21
-0.293884
  0
LINE
  8
0
 10
25.9045
 20
-0.293884
 11
25.7939
 21
-0.404495
  0
LINE
  8
0
 10
25.7939
 20
-0.404495
 11
25.6545
 21
-0.475525
  0
LINE
  8
0
 10
25.6545
 20
-0.475525
 11
25.5
 21
-0.5
  0
LINE
  8
0
 10
25.5
 20
-0.5
 11
2.5
 21
-0.5
  0
LINE
  8
0
 10
79
 20
-0.5
 11
78.8455
 21
-0.475525
  0
LINE
  8
0
 10
78.8455
 20
-0.475525
 11
78.7061
 21
-0.404495
  0
LINE
  8
0
 10
78.7061
 20
-0.404495
 11
78.5955
 21
-0.293884
  0
LINE
  8
0
 10
78.5955
 20
-0.293884
 11
78.5245
 21
-0.154495
  0
LINE
  8
0
 10
78.5245
 20
-0.154495
 11
78.5
 21
0
  0
LINE
  8
0
 10
78.5
 20
0
 11
78.5245
 21
0.154495
  0
LINE
  8
0
 10
78.5245
 20
0.154495
 11
78.5955
 21
0.293884
  0
LINE
  8
0
 10
78.5955
 20
0.293884
 11
78.7061
 21
0.404495
  0
LINE
  8
0
 10
78.7061
 20
0.404495
 11
78.8455
 21
0.475525
  0
LINE
  8
0
 10
78.8455
 20
0.475525
 11
79
 21
0.5
  0
LINE
  8
0
 10
79
 20
0.5
 11
102
 21
0.5
  0
LINE
  8
0
 10
102
 20
0.5
 11
102.155
 21
0.475525
  0
LINE
  8
0
 10
102.155
 20
0.475525
 11
102.294
 21
0.404495
  0
LINE
  8
0
 10
102.294
 20
0.404495
 11
102.405
 21
0.293884
  0
LINE
  8
0
 10
102.405
 20
0.293884
 11
102.476
 21
0.154495
  0
LINE
  8
0
 10
102.476
 20
0.154495
 11
102.5
 21
0
  0
LINE
  8
0
 10
102.5
 20
0
 11
102.476
 21
-0.154495
  0
LINE
  8
0
 10
102.476
 20
-0.154495
 11
102.405
 21
-0.293884
  0
LINE
  8
0
 10
102.405
 20
-0.293884
 11
102.294
 21
-0.404495
  0
LINE
  8
0
 10
102.294
 20
-0.404495
 11
102.155
 21
-0.475525
  0
LINE
  8
0
 10
102.155
 20
-0.475525
 11
102
 21
-0.5
  0
LINE
  8
0
 10
102
 20
-0.5
 11
79
 21
-0.5
  0
LINE
  8
0
 10
104.345
 20
-28.8505
 11
104.206
 21
-28.7795
  0
LINE
  8
0
 10
104.206
 20
-28.7795
 11
104.095
 21
-28.6689
  0
LINE
  8
0
 10
104.095
 20
-28.6689
 11
104.024
 21
-28.5295
  0
LINE
  8
0
 10
104.024
 20
-28.5295
 11
104
 21
-28.375
  0
LINE
  8
0
 10
104
 20
-28.375
 11
104
 21
-2.5
  0
LINE
  8
0
 10
104
 20
-2.5
 11
104.024
 21
-2.34549
  0
LINE
  8
0
 10
104.024
 20
-2.34549
 11
104.095
 21
-2.2061
  0
LINE
  8
0
 10
104.095
 20
-2.2061
 11
104.206
 21
-2.09549
  0
LINE
  8
0
 10
104.206
 20
-2.09549
 11
104.345
 21
-2.02446
  0
LINE
  8
0
 10
104.345
 20
-2.02446
 11
104.5
 21
-2
  0
LINE
  8
0
 10
104.5
 20
-2
 11
104.655
 21
-2.02446
  0
LINE
  8
0
 10
104.655
 20
-2.02446
 11
104.794
 21
-2.09549
  0
LINE
  8
0
 10
104.794
 20
-2.09549
 11
104.905
 21
-2.2061
  0
LINE
  8
0
 10
104.905
 20
-2.2061
 11
104.976
 21
-2.34549
  0
LINE
  8
0
 10
104.976
 20
-2.34549
 11
105
 21
-2.5
  0
LINE
  8
0
 10
105
 20
-2.5
 11
105
 21
-28.375
  0
LINE
  8
0
 10
105
 20
-28.375
 11
104.976
 21
-28.5295
  0
LINE
  8
0
 10
104.976
 20
-28.5295
 11
104.905
 21
-28.6689
  0
LINE
  8
0
 10
104.905
 20
-28.6689
 11
104.794
 21
-28.7795
  0
LINE
  8
0
 10
104.794
 20
-28.7795
 11
104.655
 21
-28.8505
  0
LINE
  8
0
 10
104.655
 20
-28.8505
 11
104.5
 21
-28.875
  0
LINE
  8
0
 10
104.5
 20
-28.875
 11
104.345
 21
-28.8505
  0
LINE
  8
0
 10
-0.154495
 20
-44.4755
 11
-0.293884
 21
-44.4045
  0
LINE
  8
0
 10
-0.293884
 20
-44.4045
 11
-0.404495
 21
-44.2939
  0
LINE
  8
0
 10
-0.404495
 20
-44.2939
 11
-0.475525
 21
-44.1545
  0
LINE
  8
0
 10
-0.475525
 20
-44.1545
 11
-0.5
 21
-44
  0
LINE
  8
0
 10
-0.5
 20
-44
 11
-0.5
 21
-2.5
  0
LINE
  8
0
 10
-0.5
 20
-2.5
 11
-0.475525
 21
-2.34549
  0
LINE
  8
0
 10
-0.475525
 20
-2.34549
 11
-0.404495
 21
-2.2061
  0
LINE
  8
0
 10
-0.404495
 20
-2.2061
 11
-0.293884
 21
-2.09549
  0
LINE
  8
0
 10
-0.293884
 20
-2.09549
 11
-0.154495
 21
-2.02446
  0
LINE
  8
0
 10
-0.154495
 20
-2.02446
 11
0
 21
-2
  0
LINE
  8
0
 10
0
 20
-2
 11
0.154495
 21
-2.02446
  0
LINE
  8
0
 10
0.154495
 20
-2.02446
 11
0.293884
 21
-2.09549
  0
LINE
  8
0
 10
0.293884
 20
-2.09549
 11
0.404495
 21
-2.2061
  0
LINE
  8
0
 10
0.404495
 20
-2.2061
 11
0.475525
 21
-2.34549
  0
LINE
  8
0
 10
0.475525
 20
-2.34549
 11
0.5
 21
-2.5
  0
LINE
  8
0
 10
0.5
 20
-2.5
 11
0.5
 21
-44
  0
LINE
  8
0
 10
0.5
 20
-44
 11
0.475525
 21
-44.1545
  0
LINE
  8
0
 10
0.475525
 20
-44.1545
 11
0.404495
 21
-44.2939
  0
LINE
  8
0
 10
0.404495
 20
-44.2939
 11
0.293884
 21
-44.4045
  0
LINE
  8
0
 10
0.293884
 20
-44.4045
 11
0.154495
 21
-44.4755
  0
LINE
  8
0
 10
0.154495
 20
-44.4755
 11
0
 21
-44.5
  0
LINE
  8
0
 10
0
 20
-44.5
 11
-0.154495
 21
-44.4755
  0
LINE
  8
0
 10
-5.73175
 20
-8.46329
 11
-5.94083
 21
-8.35675
  0
LINE
  8
0
 10
-5.94083
 20
-8.35675
 11
-6.10675
 21
-8.19083
  0
LINE
  8
0
 10
-6.10675
 20
-8.19083
 11
-6.21329
 21
-7.98175
  0
LINE
  8
0
 10
-6.21329
 20
-7.98175
 11
-6.25
 21
-7.75
  0
LINE
  8
0
 10
-6.25
 20
-7.75
 11
-6.21329
 21
-7.51823
  0
LINE
  8
0
 10
-6.21329
 20
-7.51823
 11
-6.10675
 21
-7.30916
  0
LINE
  8
0
 10
-6.10675
 20
-7.30916
 11
-5.94083
 21
-7.14323
  0
LINE
  8
0
 10
-5.94083
 20
-7.14323
 11
-5.73175
 21
-7.0367
  0
LINE
  8
0
 10
-5.73175
 20
-7.0367
 11
-5.5
 21
-7
  0
LINE
  8
0
 10
-5.5
 20
-7
 11
-5.26823
 21
-7.0367
  0
LINE
  8
0
 10
-5.26823
 20
-7.0367
 11
-5.05916
 21
-7.14323
  0
LINE
  8
0
 10
-5.05916
 20
-7.14323
 11
-4.89323
 21
-7.30916
  0
LINE
  8
0
 10
-4.89323
 20
-7.30916
 11
-4.7867
 21
-7.51823
  0
LINE
  8
0
 10
-4.7867
 20
-7.51823
 11
-4.75
 21
-7.75
  0
LINE
  8
0
 10
-4.75
 20
-7.75
 11
-4.7867
 21
-7.98175
  0
LINE
  8
0
 10
-4.7867
 20
-7.98175
 11
-4.89323
 21
-8.19083
  0
LINE
  8
0
 10
-4.89323
 20
-8.19083
 11
-5.05916
 21
-8.35675
  0
LINE
  8
0
 10
-5.05916
 20
-8.35675
 11
-5.26823
 21
-8.46329
  0
LINE
  8
0
 10
-5.26823
 20
-8.46329
 11
-5.5
 21
-8.5
  0
LINE
  8
0
 10
-5.5
 20
-8.5
 11
-5.73175
 21
-8.46329
  0
LINE
  8
0
 10
-5.73175
 20
-17.4633
 11
-5.94083
 21
-17.3568
  0
LINE
  8
0
 10
-5.94083
 20
-17.3568
 11
-6.10675
 21
-17.1908
  0
LINE
  8
0
 10
-6.10675
 20
-17.1908
 11
-6.21329
 21
-16.9818
  0
LINE
  8
0
 10
-6.21329
 20
-16.9818
 11
-6.25
 21
-16.75
  0
LINE
  8
0
 10
-6.25
 20
-16.75
 11
-6.21329
 21
-16.5182
  0
LINE
  8
0
 10
-6.21329
 20
-16.5182
 11
-6.10675
 21
-16.3092
  0
LINE
  8
0
 10
-6.10675
 20
-16.3092
 11
-5.94083
 21
-16.1432
  0
LINE
  8
0
 10
-5.94083
 20
-16.1432
 11
-5.73175
 21
-16.0367
  0
LINE
  8
0
 10
-5.73175
 20
-16.0367
 11
-5.5
 21
-16
  0
LINE
  8
0
 10
-5.5
 20
-16
 11
-5.26823
 21
-16.0367
  0
LINE
  8
0
 10
-5.26823
 20
-16.0367
 11
-5.05916
 21
-16.1432
  0
LINE
  8
0
 10
-5.05916
 20
-16.1432
 11
-4.89323
 21
-16.3092
  0
LINE
  8
0
 10
-4.89323
 20
-16.3092
 11
-4.7867
 21
-16.5182
  0
LINE
  8
0
 10
-4.7867
 20
-16.5182
 11
-4.75
 21
-16.75
  0
LINE
  8
0
 10
-4.75
 20
-16.75
 11
-4.7867
 21
-16.9818
  0
LINE
  8
0
 10
-4.7867
 20
-16.9818
 11
-4.89323
 21
-17.1908
  0
LINE
  8
0
 10
-4.89323
 20
-17.1908
 11
-5.05916
 21
-17.3568
  0
LINE
  8
0
 10
-5.05916
 20
-17.3568
 11
-5.26823
 21
-17.4633
  0
LINE
  8
0
 10
-5.26823
 20
-17.4633
 11
-5.5
 21
-17.5
  0
LINE
  8
0
 10
-5.5
 20
-17.5
 11
-5.73175
 21
-17.4633
  0
LINE
  8
0
 10
-5.73175
 20
-24.4633
 11
-5.94083
 21
-24.3568
  0
LINE
  8
0
 10
-5.94083
 20
-24.3568
 11
-6.10675
 21
-24.1908
  0
LINE
  8
0
 10
-6.10675
 20
-24.1908
 11
-6.21329
 21
-23.9818
  0
LINE
  8
0
 10
-6.21329
 20
-23.9818
 11
-6.25
 21
-23.75
  0
LINE
  8
0
 10
-6.25
 20
-23.75
 11
-6.21329
 21
-23.5182
  0
LINE
  8
0
 10
-6.21329
 20
-23.5182
 11
-6.10675
 21
-23.3092
  0
LINE
  8
0
 10
-6.10675
 20
-23.3092
 11
-5.94083
 21
-23.1432
  0
LINE
  8
0
 10
-5.94083
 20
-23.1432
 11
-5.73175
 21
-23.0367
  0
LINE
  8
0
 10
-5.73175
 20
-23.0367
 11
-5.5
 21
-23
  0
LINE
  8
0
 10
-5.5
 20
-23
 11
-5.26823
 21
-23.0367
  0
LINE
  8
0
 10
-5.26823
 20
-23.0367
 11
-5.05916
 21
-23.1432
  0
LINE
  8
0
 10
-5.05916
 20
-23.1432
 11
-4.89323
 21
-23.3092
  0
LINE
  8
0
 10
-4.89323
 20
-23.3092
 11
-4.7867
 21
-23.5182
  0
LINE
  8
0
 10
-4.7867
 20
-23.5182
 11
-4.75
 21
-23.75
  0
LINE
  8
0
 10
-4.75
 20
-23.75
 11
-4.7867
 21
-23.9818
  0
LINE
  8
0
 10
-4.7867
 20
-23.9818
 11
-4.89323
 21
-24.1908
  0
LINE
  8
0
 10
-4.89323
 20
-24.1908
 11
-5.05916
 21
-24.3568
  0
LINE
  8
0
 10
-5.05916
 20
-24.3568
 11
-5.26823
 21
-24.4633
  0
LINE
  8
0
 10
-5.26823
 20
-24.4633
 11
-5.5
 21
-24.5
  0
LINE
  8
0
 10
-5.5
 20
-24.5
 11
-5.73175
 21
-24.4633
  0
LINE
  8
0
 10
-5.73175
 20
-31.4633
 11
-5.94083
 21
-31.3568
  0
LINE
  8
0
 10
-5.94083
 20
-31.3568
 11
-6.10675
 21
-31.1908
  0
LINE
  8
0
 10
-6.10675
 20
-31.1908
 11
-6.21329
 21
-30.9818
  0
LINE
  8
0
 10
-6.21329
 20
-30.9818
 11
-6.25
 21
-30.75
  0
LINE
  8
0
 10
-6.25
 20
-30.75
 11
-6.21329
 21
-30.5182
  0
LINE
  8
0
 10
-6.21329
 20
-30.5182
 11
-6.10675
 21
-30.3092
  0
LINE
  8
0
 10
-6.10675
 20
-30.3092
 11
-5.94083
 21
-30.1432
  0
LINE
  8
0
 10
-5.94083
 20
-30.1432
 11
-5.73175
 21
-30.0367
  0
LINE
  8
0
 10
-5.73175
 20
-30.0367
 11
-5.5
 21
-30
  0
LINE
  8
0
 10
-5.5
 20
-30
 11
-5.26823
 21
-30.0367
  0
LINE
  8
0
 10
-5.26823
 20
-30.0367
 11
-5.05916
 21
-30.1432
  0
LINE
  8
0
 10
-5.05916
 20
-30.1432
 11
-4.89323
 21
-30.3092
  0
LINE
  8
0
 10
-4.89323
 20
-30.3092
 11
-4.7867
 21
-30.5182
  0
LINE
  8
0
 10
-4.7867
 20
-30.5182
 11
-4.75
 21
-30.75
  0
LINE
  8
0
 10
-4.75
 20
-30.75
 11
-4.7867
 21
-30.9818
  0
LINE
  8
0
 10
-4.7867
 20
-30.9818
 11
-4.89323
 21
-31.1908
  0
LINE
  8
0
 10
-4.89323
 20
-31.1908
 11
-5.05916
 21
-31.3568
  0
LINE
  8
0
 10
-5.05916
 20
-31.3568
 11
-5.26823
 21
-31.4633
  0
LINE
  8
0
 10
-5.26823
 20
-31.4633
 11
-5.5
 21
-31.5
  0
LINE
  8
0
 10
-5.5
 20
-31.5
 11
-5.73175
 21
-31.4633
  0
LINE
  8
0
 10
104.345
 20
-57.2255
 11
104.206
 21
-57.1545
  0
LINE
  8
0
 10
104.206
 20
-57.1545
 11
104.095
 21
-57.0439
  0
LINE
  8
0
 10
104.095
 20
-57.0439
 11
104.024
 21
-56.9045
  0
LINE
  8
0
 10
104.024
 20
-56.9045
 11
104
 21
-56.75
  0
LINE
  8
0
 10
104
 20
-56.75
 11
104
 21
-30.875
  0
LINE
  8
0
 10
104
 20
-30.875
 11
104.024
 21
-30.7205
  0
LINE
  8
0
 10
104.024
 20
-30.7205
 11
104.095
 21
-30.5811
  0
LINE
  8
0
 10
104.095
 20
-30.5811
 11
104.206
 21
-30.4705
  0
LINE
  8
0
 10
104.206
 20
-30.4705
 11
104.345
 21
-30.3995
  0
LINE
  8
0
 10
104.345
 20
-30.3995
 11
104.5
 21
-30.375
  0
LINE
  8
0
 10
104.5
 20
-30.375
 11
104.655
 21
-30.3995
  0
LINE
  8
0
 10
104.655
 20
-30.3995
 11
104.794
 21
-30.4705
  0
LINE
  8
0
 10
104.794
 20
-30.4705
 11
104.905
 21
-30.5811
  0
LINE
  8
0
 10
104.905
 20
-30.5811
 11
104.976
 21
-30.7205
  0
LINE
  8
0
 10
104.976
 20
-30.7205
 11
105
 21
-30.875
  0
LINE
  8
0
 10
105
 20
-30.875
 11
105
 21
-56.75
  0
LINE
  8
0
 10
105
 20
-56.75
 11
104.976
 21
-56.9045
  0
LINE
  8
0
 10
104.976
 20
-56.9045
 11
104.905
 21
-57.0439
  0
LINE
  8
0
 10
104.905
 20
-57.0439
 11
104.794
 21
-57.1545
  0
LINE
  8
0
 10
104.794
 20
-57.1545
 11
104.655
 21
-57.2255
  0
LINE
  8
0
 10
104.655
 20
-57.2255
 11
104.5
 21
-57.25
  0
LINE
  8
0
 10
104.5
 20
-57.25
 11
104.345
 21
-57.2255
  0
LINE
  8
0
 10
108.205
 20
-58.3899
 11
107.577
 21
-58.0703
  0
LINE
  8
0
 10
107.577
 20
-58.0703
 11
107.08
 21
-57.5725
  0
LINE
  8
0
 10
107.08
 20
-57.5725
 11
106.76
 21
-56.9453
  0
LINE
  8
0
 10
106.76
 20
-56.9453
 11
106.65
 21
-56.25
  0
LINE
  8
0
 10
106.65
 20
-56.25
 11
106.76
 21
-55.5547
  0
LINE
  8
0
 10
106.76
 20
-55.5547
 11
107.08
 21
-54.9275
  0
LINE
  8
0
 10
107.08
 20
-54.9275
 11
107.577
 21
-54.4297
  0
LINE
  8
0
 10
107.577
 20
-54.4297
 11
108.205
 21
-54.1101
  0
LINE
  8
0
 10
108.205
 20
-54.1101
 11
108.9
 21
-54
  0
LINE
  8
0
 10
108.9
 20
-54
 11
109.595
 21
-54.1101
  0
LINE
  8
0
 10
109.595
 20
-54.1101
 11
110.223
 21
-54.4297
  0
LINE
  8
0
 10
110.223
 20
-54.4297
 11
110.72
 21
-54.9275
  0
LINE
  8
0
 10
110.72
 20
-54.9275
 11
111.04
 21
-55.5547
  0
LINE
  8
0
 10
111.04
 20
-55.5547
 11
111.15
 21
-56.25
  0
LINE
  8
0
 10
111.15
 20
-56.25
 11
111.04
 21
-56.9453
  0
LINE
  8
0
 10
111.04
 20
-56.9453
 11
110.72
 21
-57.5725
  0
LINE
  8
0
 10
110.72
 20
-57.5725
 11
110.223
 21
-58.0703
  0
LINE
  8
0
 10
110.223
 20
-58.0703
 11
109.595
 21
-58.3899
  0
LINE
  8
0
 10
109.595
 20
-58.3899
 11
108.9
 21
-58.5
  0
LINE
  8
0
 10
108.9
 20
-58.5
 11
108.205
 21
-58.3899
  0
LINE
  8
0
 10
-0.154495
 20
-66.9755
 11
-0.293884
 21
-66.9045
  0
LINE
  8
0
 10
-0.293884
 20
-66.9045
 11
-0.404495
 21
-66.7939
  0
LINE
  8
0
 10
-0.404495
 20
-66.7939
 11
-0.475525
 21
-66.6545
  0
LINE
  8
0
 10
-0.475525
 20
-66.6545
 11
-0.5
 21
-66.5
  0
LINE
  8
0
 10
-0.5
 20
-66.5
 11
-0.5
 21
-57.5
  0
LINE
  8
0
 10
-0.5
 20
-57.5
 11
-0.475525
 21
-57.3455
  0
LINE
  8
0
 10
-0.475525
 20
-57.3455
 11
-0.404495
 21
-57.2061
  0
LINE
  8
0
 10
-0.404495
 20
-57.2061
 11
-0.293884
 21
-57.0955
  0
LINE
  8
0
 10
-0.293884
 20
-57.0955
 11
-0.154495
 21
-57.0245
  0
LINE
  8
0
 10
-0.154495
 20
-57.0245
 11
0
 21
-57
  0
LINE
  8
0
 10
0
 20
-57
 11
0.154495
 21
-57.0245
  0
LINE
  8
0
 10
0.154495
 20
-57.0245
 11
0.293884
 21
-57.0955
  0
LINE
  8
0
 10
0.293884
 20
-57.0955
 11
0.404495
 21
-57.2061
  0
LINE
  8
0
 10
0.404495
 20
-57.2061
 11
0.475525
 21
-57.3455
  0
LINE
  8
0
 10
0.475525
 20
-57.3455
 11
0.5
 21
-57.5
  0
LINE
  8
0
 10
0.5
 20
-57.5
 11
0.5
 21
-66.5
  0
LINE
  8
0
 10
0.5
 20
-66.5
 11
0.475525
 21
-66.6545
  0
LINE
  8
0
 10
0.475525
 20
-66.6545
 11
0.404495
 21
-66.7939
  0
LINE
  8
0
 10
0.404495
 20
-66.7939
 11
0.293884
 21
-66.9045
  0
LINE
  8
0
 10
0.293884
 20
-66.9045
 11
0.154495
 21
-66.9755
  0
LINE
  8
0
 10
0.154495
 20
-66.9755
 11
0
 21
-67
  0
LINE
  8
0
 10
0
 20
-67
 11
-0.154495
 21
-66.9755
  0
LINE
  8
0
 10
-5.54077
 20
-68.0643
 11
-6.02861
 21
-67.8158
  0
LINE
  8
0
 10
-6.02861
 20
-67.8158
 11
-6.41577
 21
-67.4286
  0
LINE
  8
0
 10
-6.41577
 20
-67.4286
 11
-6.66434
 21
-66.9408
  0
LINE
  8
0
 10
-6.66434
 20
-66.9408
 11
-6.75
 21
-66.4
  0
LINE
  8
0
 10
-6.75
 20
-66.4
 11
-6.66434
 21
-65.8592
  0
LINE
  8
0
 10
-6.66434
 20
-65.8592
 11
-6.41577
 21
-65.3714
  0
LINE
  8
0
 10
-6.41577
 20
-65.3714
 11
-6.02861
 21
-64.9842
  0
LINE
  8
0
 10
-6.02861
 20
-64.9842
 11
-5.54077
 21
-64.7356
  0
LINE
  8
0
 10
-5.54077
 20
-64.7356
 11
-5
 21
-64.65
  0
LINE
  8
0
 10
-5
 20
-64.65
 11
-4.45921
 21
-64.7356
  0
LINE
  8
0
 10
-4.45921
 20
-64.7356
 11
-3.97137
 21
-64.9842
  0
LINE
  8
0
 10
-3.97137
 20
-64.9842
 11
-3.58421
 21
-65.3714
  0
LINE
  8
0
 10
-3.58421
 20
-65.3714
 11
-3.33565
 21
-65.8592
  0
LINE
  8
0
 10
-3.33565
 20
-65.8592
 11
-3.25
 21
-66.4
  0
LINE
  8
0
 10
-3.25
 20
-66.4
 11
-3.33565
 21
-66.9408
  0
LINE
  8
0
 10
-3.33565
 20
-66.9408
 11
-3.58421
 21
-67.4286
  0
LINE
  8
0
 10
-3.58421
 20
-67.4286
 11
-3.97137
 21
-67.8158
  0
LINE
  8
0
 10
-3.97137
 20
-67.8158
 11
-4.45921
 21
-68.0643
  0
LINE
  8
0
 10
-4.45921
 20
-68.0643
 11
-5
 21
-68.15
  0
LINE
  8
0
 10
-5
 20
-68.15
 11
-5.54077
 21
-68.0643
  0
LINE
  8
0
 10
53.5
 20
45.5
 11
53.3455
 21
45.5245
  0
LINE
  8
0
 10
53.3455
 20
45.5245
 11
53.2061
 21
45.5955
  0
LINE
  8
0
 10
53.2061
 20
45.5955
 11
53.0955
 21
45.7061
  0
LINE
  8
0
 10
53.0955
 20
45.7061
 11
53.0245
 21
45.8455
  0
LINE
  8
0
 10
53.0245
 20
45.8455
 11
53
 21
46
  0
LINE
  8
0
 10
53
 20
46
 11
53.0245
 21
46.1545
  0
LINE
  8
0
 10
53.0245
 20
46.1545
 11
53.0955
 21
46.2939
  0
LINE
  8
0
 10
53.0955
 20
46.2939
 11
53.2061
 21
46.4045
  0
LINE
  8
0
 10
53.2061
 20
46.4045
 11
53.3455
 21
46.4755
  0
LINE
  8
0
 10
53.3455
 20
46.4755
 11
53.5
 21
46.5
  0
LINE
  8
0
 10
53.5
 20
46.5
 11
76.5
 21
46.5
  0
LINE
  8
0
 10
76.5
 20
46.5
 11
76.6545
 21
46.4755
  0
LINE
  8
0
 10
76.6545
 20
46.4755
 11
76.7939
 21
46.4045
  0
LINE
  8
0
 10
76.7939
 20
46.4045
 11
76.9045
 21
46.2939
  0
LINE
  8
0
 10
76.9045
 20
46.2939
 11
76.9755
 21
46.1545
  0
LINE
  8
0
 10
76.9755
 20
46.1545
 11
77
 21
46
  0
LINE
  8
0
 10
77
 20
46
 11
76.9755
 21
45.8455
  0
LINE
  8
0
 10
76.9755
 20
45.8455
 11
76.9045
 21
45.7061
  0
LINE
  8
0
 10
76.9045
 20
45.7061
 11
76.7939
 21
45.5955
  0
LINE
  8
0
 10
76.7939
 20
45.5955
 11
76.6545
 21
45.5245
  0
LINE
  8
0
 10
76.6545
 20
45.5245
 11
76.5
 21
45.5
  0
LINE
  8
0
 10
76.5
 20
45.5
 11
53.5
 21
45.5
  0
ENDSEC
  0
SECTION
  2
OBJECTS
  0
DICTIONARY
  0
ENDSEC
  0
EOF
