  0
SECTION
  2
BLOCKS
  0
ENDSEC
  0
SECTION
  2
ENTITIES
  0
LINE
  8
0
 10
-0.838287
 20
-69.0182
 11
-0.73175
 21
-68.8092
  0
LINE
  8
0
 10
-0.73175
 20
-68.8092
 11
-0.565826
 21
-68.6432
  0
LINE
  8
0
 10
-0.565826
 20
-68.6432
 11
-0.35675
 21
-68.5367
  0
LINE
  8
0
 10
-0.35675
 20
-68.5367
 11
-0.125
 21
-68.5
  0
LINE
  8
0
 10
-0.125
 20
-68.5
 11
0.10675
 21
-68.5367
  0
LINE
  8
0
 10
0.10675
 20
-68.5367
 11
0.315826
 21
-68.6432
  0
LINE
  8
0
 10
0.315826
 20
-68.6432
 11
0.48175
 21
-68.8092
  0
LINE
  8
0
 10
0.48175
 20
-68.8092
 11
0.588287
 21
-69.0182
  0
LINE
  8
0
 10
0.588287
 20
-69.0182
 11
0.625
 21
-69.25
  0
LINE
  8
0
 10
0.625
 20
-69.25
 11
104
 21
-69.25
  0
LINE
  8
0
 10
104
 20
-69.25
 11
104.155
 21
-69.2255
  0
LINE
  8
0
 10
104.155
 20
-69.2255
 11
104.294
 21
-69.1545
  0
LINE
  8
0
 10
104.294
 20
-69.1545
 11
104.405
 21
-69.0439
  0
LINE
  8
0
 10
104.405
 20
-69.0439
 11
104.476
 21
-68.9045
  0
LINE
  8
0
 10
104.476
 20
-68.9045
 11
104.5
 21
-68.75
  0
LINE
  8
0
 10
104.5
 20
-68.75
 11
104.5
 21
-60.2302
  0
LINE
  8
0
 10
104.5
 20
-60.2302
 11
104.393
 21
-60.2133
  0
LINE
  8
0
 10
104.393
 20
-60.2133
 11
104.184
 21
-60.1068
  0
LINE
  8
0
 10
104.184
 20
-60.1068
 11
104.018
 21
-59.9408
  0
LINE
  8
0
 10
104.018
 20
-59.9408
 11
103.912
 21
-59.7318
  0
LINE
  8
0
 10
103.912
 20
-59.7318
 11
103.875
 21
-59.5
  0
LINE
  8
0
 10
103.875
 20
-59.5
 11
103.912
 21
-59.2682
  0
LINE
  8
0
 10
103.912
 20
-59.2682
 11
104.018
 21
-59.0592
  0
LINE
  8
0
 10
104.018
 20
-59.0592
 11
104.184
 21
-58.8932
  0
LINE
  8
0
 10
104.184
 20
-58.8932
 11
104.393
 21
-58.7867
  0
LINE
  8
0
 10
104.393
 20
-58.7867
 11
104.625
 21
-58.75
  0
LINE
  8
0
 10
104.625
 20
-58.75
 11
104.857
 21
-58.7867
  0
LINE
  8
0
 10
104.857
 20
-58.7867
 11
105.066
 21
-58.8932
  0
LINE
  8
0
 10
105.066
 20
-58.8932
 11
105.232
 21
-59.0592
  0
LINE
  8
0
 10
105.232
 20
-59.0592
 11
105.338
 21
-59.2682
  0
LINE
  8
0
 10
105.338
 20
-59.2682
 11
105.375
 21
-59.5
  0
LINE
  8
0
 10
105.375
 20
-59.5
 11
111.6
 21
-59.5
  0
LINE
  8
0
 10
111.6
 20
-59.5
 11
111.755
 21
-59.4755
  0
LINE
  8
0
 10
111.755
 20
-59.4755
 11
111.894
 21
-59.4045
  0
LINE
  8
0
 10
111.894
 20
-59.4045
 11
112.005
 21
-59.2939
  0
LINE
  8
0
 10
112.005
 20
-59.2939
 11
112.076
 21
-59.1545
  0
LINE
  8
0
 10
112.076
 20
-59.1545
 11
112.1
 21
-59
  0
LINE
  8
0
 10
112.1
 20
-59
 11
112.1
 21
-0.75
  0
LINE
  8
0
 10
112.1
 20
-0.75
 11
112.076
 21
-0.59549
  0
LINE
  8
0
 10
112.076
 20
-0.59549
 11
112.005
 21
-0.4561
  0
LINE
  8
0
 10
112.005
 20
-0.4561
 11
111.894
 21
-0.34549
  0
LINE
  8
0
 10
111.894
 20
-0.34549
 11
111.755
 21
-0.27446
  0
LINE
  8
0
 10
111.755
 20
-0.27446
 11
111.6
 21
-0.25
  0
LINE
  8
0
 10
111.6
 20
-0.25
 11
105.375
 21
-0.25
  0
LINE
  8
0
 10
105.375
 20
-0.25
 11
105.338
 21
-0.48175
  0
LINE
  8
0
 10
105.338
 20
-0.48175
 11
105.232
 21
-0.690826
  0
LINE
  8
0
 10
105.232
 20
-0.690826
 11
105.066
 21
-0.85675
  0
LINE
  8
0
 10
105.066
 20
-0.85675
 11
104.857
 21
-0.963287
  0
LINE
  8
0
 10
104.857
 20
-0.963287
 11
104.625
 21
-1
  0
LINE
  8
0
 10
104.625
 20
-1
 11
104.393
 21
-0.963287
  0
LINE
  8
0
 10
104.393
 20
-0.963287
 11
104.184
 21
-0.85675
  0
LINE
  8
0
 10
104.184
 20
-0.85675
 11
103.893
 21
-0.565826
  0
LINE
  8
0
 10
103.893
 20
-0.565826
 11
103.787
 21
-0.35675
  0
LINE
  8
0
 10
103.787
 20
-0.35675
 11
103.75
 21
-0.125
  0
LINE
  8
0
 10
103.75
 20
-0.125
 11
103.787
 21
0.10675
  0
LINE
  8
0
 10
103.787
 20
0.10675
 11
103.893
 21
0.315826
  0
LINE
  8
0
 10
103.893
 20
0.315826
 11
104.059
 21
0.48175
  0
LINE
  8
0
 10
104.059
 20
0.48175
 11
104.268
 21
0.588287
  0
LINE
  8
0
 10
104.268
 20
0.588287
 11
104.5
 21
0.625
  0
LINE
  8
0
 10
104.5
 20
0.625
 11
104.5
 21
45.375
  0
LINE
  8
0
 10
104.5
 20
45.375
 11
104.268
 21
45.4117
  0
LINE
  8
0
 10
104.268
 20
45.4117
 11
104.059
 21
45.5182
  0
LINE
  8
0
 10
104.059
 20
45.5182
 11
103.893
 21
45.6842
  0
LINE
  8
0
 10
103.893
 20
45.6842
 11
103.787
 21
45.8932
  0
LINE
  8
0
 10
103.787
 20
45.8932
 11
103.75
 21
46.125
  0
LINE
  8
0
 10
103.75
 20
46.125
 11
103.787
 21
46.3568
  0
LINE
  8
0
 10
103.787
 20
46.3568
 11
103.893
 21
46.5658
  0
LINE
  8
0
 10
103.893
 20
46.5658
 11
104.184
 21
46.8568
  0
LINE
  8
0
 10
104.184
 20
46.8568
 11
104.393
 21
46.9633
  0
LINE
  8
0
 10
104.393
 20
46.9633
 11
104.625
 21
47
  0
LINE
  8
0
 10
104.625
 20
47
 11
104.857
 21
46.9633
  0
LINE
  8
0
 10
104.857
 20
46.9633
 11
105.066
 21
46.8568
  0
LINE
  8
0
 10
105.066
 20
46.8568
 11
105.232
 21
46.6908
  0
LINE
  8
0
 10
105.232
 20
46.6908
 11
105.338
 21
46.4818
  0
LINE
  8
0
 10
105.338
 20
46.4818
 11
105.375
 21
46.25
  0
LINE
  8
0
 10
105.375
 20
46.25
 11
129.1
 21
46.25
  0
LINE
  8
0
 10
129.1
 20
46.25
 11
129.255
 21
46.2745
  0
LINE
  8
0
 10
129.255
 20
46.2745
 11
129.394
 21
46.3455
  0
LINE
  8
0
 10
129.394
 20
46.3455
 11
129.505
 21
46.4561
  0
LINE
  8
0
 10
129.505
 20
46.4561
 11
129.576
 21
46.5955
  0
LINE
  8
0
 10
129.576
 20
46.5955
 11
129.6
 21
46.75
  0
LINE
  8
0
 10
129.6
 20
46.75
 11
129.6
 21
98
  0
LINE
  8
0
 10
129.6
 20
98
 11
129.576
 21
98.1545
  0
LINE
  8
0
 10
129.576
 20
98.1545
 11
129.505
 21
98.2939
  0
LINE
  8
0
 10
129.505
 20
98.2939
 11
129.394
 21
98.4045
  0
LINE
  8
0
 10
129.394
 20
98.4045
 11
129.255
 21
98.4755
  0
LINE
  8
0
 10
129.255
 20
98.4755
 11
129.1
 21
98.5
  0
LINE
  8
0
 10
129.1
 20
98.5
 11
112.1
 21
98.5
  0
LINE
  8
0
 10
112.1
 20
98.5
 11
112.1
 21
105
  0
LINE
  8
0
 10
112.1
 20
105
 11
112.076
 21
105.155
  0
LINE
  8
0
 10
112.076
 20
105.155
 11
112.005
 21
105.294
  0
LINE
  8
0
 10
112.005
 20
105.294
 11
111.894
 21
105.405
  0
LINE
  8
0
 10
111.894
 20
105.405
 11
111.755
 21
105.476
  0
LINE
  8
0
 10
111.755
 20
105.476
 11
111.6
 21
105.5
  0
LINE
  8
0
 10
111.6
 20
105.5
 11
105.375
 21
105.5
  0
LINE
  8
0
 10
105.375
 20
105.5
 11
105.338
 21
105.268
  0
LINE
  8
0
 10
105.338
 20
105.268
 11
105.232
 21
105.059
  0
LINE
  8
0
 10
105.232
 20
105.059
 11
105.066
 21
104.893
  0
LINE
  8
0
 10
105.066
 20
104.893
 11
104.857
 21
104.787
  0
LINE
  8
0
 10
104.857
 20
104.787
 11
104.625
 21
104.75
  0
LINE
  8
0
 10
104.625
 20
104.75
 11
104.393
 21
104.787
  0
LINE
  8
0
 10
104.393
 20
104.787
 11
104.184
 21
104.893
  0
LINE
  8
0
 10
104.184
 20
104.893
 11
104.018
 21
105.059
  0
LINE
  8
0
 10
104.018
 20
105.059
 11
103.912
 21
105.268
  0
LINE
  8
0
 10
103.912
 20
105.268
 11
103.875
 21
105.5
  0
LINE
  8
0
 10
103.875
 20
105.5
 11
103.912
 21
105.732
  0
LINE
  8
0
 10
103.912
 20
105.732
 11
104.018
 21
105.941
  0
LINE
  8
0
 10
104.018
 20
105.941
 11
104.184
 21
106.107
  0
LINE
  8
0
 10
104.184
 20
106.107
 11
104.393
 21
106.213
  0
LINE
  8
0
 10
104.393
 20
106.213
 11
104.5
 21
106.23
  0
LINE
  8
0
 10
104.5
 20
106.23
 11
104.5
 21
114.75
  0
LINE
  8
0
 10
104.5
 20
114.75
 11
104.476
 21
114.905
  0
LINE
  8
0
 10
104.476
 20
114.905
 11
104.405
 21
115.044
  0
LINE
  8
0
 10
104.405
 20
115.044
 11
104.294
 21
115.155
  0
LINE
  8
0
 10
104.294
 20
115.155
 11
104.155
 21
115.226
  0
LINE
  8
0
 10
104.155
 20
115.226
 11
104
 21
115.25
  0
LINE
  8
0
 10
104
 20
115.25
 11
0.625
 21
115.25
  0
LINE
  8
0
 10
0.625
 20
115.25
 11
0.588287
 21
115.018
  0
LINE
  8
0
 10
0.588287
 20
115.018
 11
0.48175
 21
114.809
  0
LINE
  8
0
 10
0.48175
 20
114.809
 11
0.315826
 21
114.643
  0
LINE
  8
0
 10
0.315826
 20
114.643
 11
0.10675
 21
114.537
  0
LINE
  8
0
 10
0.10675
 20
114.537
 11
-0.125
 21
114.5
  0
LINE
  8
0
 10
-0.125
 20
114.5
 11
-0.35675
 21
114.537
  0
LINE
  8
0
 10
-0.35675
 20
114.537
 11
-0.565826
 21
114.643
  0
LINE
  8
0
 10
-0.565826
 20
114.643
 11
-0.73175
 21
114.809
  0
LINE
  8
0
 10
-0.73175
 20
114.809
 11
-0.838287
 21
115.018
  0
LINE
  8
0
 10
-0.838287
 20
115.018
 11
-0.875
 21
115.25
  0
LINE
  8
0
 10
-0.875
 20
115.25
 11
-13.625
 21
115.25
  0
LINE
  8
0
 10
-13.625
 20
115.25
 11
-13.7795
 21
115.226
  0
LINE
  8
0
 10
-13.7795
 20
115.226
 11
-13.9189
 21
115.155
  0
LINE
  8
0
 10
-13.9189
 20
115.155
 11
-14.0295
 21
115.044
  0
LINE
  8
0
 10
-14.0295
 20
115.044
 11
-14.1005
 21
114.905
  0
LINE
  8
0
 10
-14.1005
 20
114.905
 11
-14.125
 21
114.75
  0
LINE
  8
0
 10
-14.125
 20
114.75
 11
-14.125
 21
46.75
  0
LINE
  8
0
 10
-14.125
 20
46.75
 11
-14.1005
 21
46.5955
  0
LINE
  8
0
 10
-14.1005
 20
46.5955
 11
-14.0295
 21
46.4561
  0
LINE
  8
0
 10
-14.0295
 20
46.4561
 11
-13.9189
 21
46.3455
  0
LINE
  8
0
 10
-13.9189
 20
46.3455
 11
-13.7795
 21
46.2745
  0
LINE
  8
0
 10
-13.7795
 20
46.2745
 11
-13.625
 21
46.25
  0
LINE
  8
0
 10
-13.625
 20
46.25
 11
-0.875
 21
46.25
  0
LINE
  8
0
 10
-0.875
 20
46.25
 11
-0.838287
 21
46.4818
  0
LINE
  8
0
 10
-0.838287
 20
46.4818
 11
-0.73175
 21
46.6908
  0
LINE
  8
0
 10
-0.73175
 20
46.6908
 11
-0.565826
 21
46.8568
  0
LINE
  8
0
 10
-0.565826
 20
46.8568
 11
-0.35675
 21
46.9633
  0
LINE
  8
0
 10
-0.35675
 20
46.9633
 11
-0.125
 21
47
  0
LINE
  8
0
 10
-0.125
 20
47
 11
0.10675
 21
46.9633
  0
LINE
  8
0
 10
0.10675
 20
46.9633
 11
0.315826
 21
46.8568
  0
LINE
  8
0
 10
0.315826
 20
46.8568
 11
0.60675
 21
46.5658
  0
LINE
  8
0
 10
0.60675
 20
46.5658
 11
0.713287
 21
46.3568
  0
LINE
  8
0
 10
0.713287
 20
46.3568
 11
0.75
 21
46.125
  0
LINE
  8
0
 10
0.75
 20
46.125
 11
0.713287
 21
45.8932
  0
LINE
  8
0
 10
0.713287
 20
45.8932
 11
0.60675
 21
45.6842
  0
LINE
  8
0
 10
0.60675
 20
45.6842
 11
0.440826
 21
45.5182
  0
LINE
  8
0
 10
0.440826
 20
45.5182
 11
0.23175
 21
45.4117
  0
LINE
  8
0
 10
0.23175
 20
45.4117
 11
0
 21
45.375
  0
LINE
  8
0
 10
0
 20
45.375
 11
0
 21
0.625
  0
LINE
  8
0
 10
0
 20
0.625
 11
0.23175
 21
0.588287
  0
LINE
  8
0
 10
0.23175
 20
0.588287
 11
0.440826
 21
0.48175
  0
LINE
  8
0
 10
0.440826
 20
0.48175
 11
0.60675
 21
0.315826
  0
LINE
  8
0
 10
0.60675
 20
0.315826
 11
0.713287
 21
0.10675
  0
LINE
  8
0
 10
0.713287
 20
0.10675
 11
0.75
 21
-0.125
  0
LINE
  8
0
 10
0.75
 20
-0.125
 11
0.713287
 21
-0.35675
  0
LINE
  8
0
 10
0.713287
 20
-0.35675
 11
0.60675
 21
-0.565826
  0
LINE
  8
0
 10
0.60675
 20
-0.565826
 11
0.315826
 21
-0.85675
  0
LINE
  8
0
 10
0.315826
 20
-0.85675
 11
0.10675
 21
-0.963287
  0
LINE
  8
0
 10
0.10675
 20
-0.963287
 11
-0.125
 21
-1
  0
LINE
  8
0
 10
-0.125
 20
-1
 11
-0.35675
 21
-0.963287
  0
LINE
  8
0
 10
-0.35675
 20
-0.963287
 11
-0.565826
 21
-0.85675
  0
LINE
  8
0
 10
-0.565826
 20
-0.85675
 11
-0.73175
 21
-0.690826
  0
LINE
  8
0
 10
-0.73175
 20
-0.690826
 11
-0.838287
 21
-0.48175
  0
LINE
  8
0
 10
-0.838287
 20
-0.48175
 11
-0.875
 21
-0.25
  0
LINE
  8
0
 10
-0.875
 20
-0.25
 11
-31.625
 21
-0.25
  0
LINE
  8
0
 10
-31.625
 20
-0.25
 11
-31.7795
 21
-0.27446
  0
LINE
  8
0
 10
-31.7795
 20
-0.27446
 11
-31.9189
 21
-0.34549
  0
LINE
  8
0
 10
-31.9189
 20
-0.34549
 11
-32.0295
 21
-0.4561
  0
LINE
  8
0
 10
-32.0295
 20
-0.4561
 11
-32.1005
 21
-0.59549
  0
LINE
  8
0
 10
-32.1005
 20
-0.59549
 11
-32.125
 21
-0.749985
  0
LINE
  8
0
 10
-32.125
 20
-0.749985
 11
-32.125
 21
-68.75
  0
LINE
  8
0
 10
-32.125
 20
-68.75
 11
-32.1005
 21
-68.9045
  0
LINE
  8
0
 10
-32.1005
 20
-68.9045
 11
-32.0295
 21
-69.0439
  0
LINE
  8
0
 10
-32.0295
 20
-69.0439
 11
-31.9189
 21
-69.1545
  0
LINE
  8
0
 10
-31.9189
 20
-69.1545
 11
-31.7795
 21
-69.2255
  0
LINE
  8
0
 10
-31.7795
 20
-69.2255
 11
-31.625
 21
-69.25
  0
LINE
  8
0
 10
-31.625
 20
-69.25
 11
-0.875
 21
-69.25
  0
LINE
  8
0
 10
-0.875
 20
-69.25
 11
-0.838287
 21
-69.0182
  0
LINE
  8
0
 10
-5.75215
 20
111.105
 11
-6.20514
 21
111.335
  0
LINE
  8
0
 10
-6.20514
 20
111.335
 11
-6.56465
 21
111.695
  0
LINE
  8
0
 10
-6.56465
 20
111.695
 11
-6.79546
 21
112.148
  0
LINE
  8
0
 10
-6.79546
 20
112.148
 11
-6.875
 21
112.65
  0
LINE
  8
0
 10
-6.875
 20
112.65
 11
-6.79546
 21
113.152
  0
LINE
  8
0
 10
-6.79546
 20
113.152
 11
-6.56465
 21
113.605
  0
LINE
  8
0
 10
-6.56465
 20
113.605
 11
-6.20514
 21
113.965
  0
LINE
  8
0
 10
-6.20514
 20
113.965
 11
-5.75215
 21
114.195
  0
LINE
  8
0
 10
-5.75215
 20
114.195
 11
-5.25
 21
114.275
  0
LINE
  8
0
 10
-5.25
 20
114.275
 11
-4.74783
 21
114.195
  0
LINE
  8
0
 10
-4.74783
 20
114.195
 11
-4.29485
 21
113.965
  0
LINE
  8
0
 10
-4.29485
 20
113.965
 11
-3.93533
 21
113.605
  0
LINE
  8
0
 10
-3.93533
 20
113.605
 11
-3.70453
 21
113.152
  0
LINE
  8
0
 10
-3.70453
 20
113.152
 11
-3.625
 21
112.65
  0
LINE
  8
0
 10
-3.625
 20
112.65
 11
-3.70453
 21
112.148
  0
LINE
  8
0
 10
-3.70453
 20
112.148
 11
-3.93533
 21
111.695
  0
LINE
  8
0
 10
-3.93533
 20
111.695
 11
-4.29485
 21
111.335
  0
LINE
  8
0
 10
-4.29485
 20
111.335
 11
-4.74783
 21
111.105
  0
LINE
  8
0
 10
-4.74783
 20
111.105
 11
-5.25
 21
111.025
  0
LINE
  8
0
 10
-5.25
 20
111.025
 11
-5.75215
 21
111.105
  0
LINE
  8
0
 10
-0.279495
 20
103.774
 11
-0.418884
 21
103.845
  0
LINE
  8
0
 10
-0.418884
 20
103.845
 11
-0.529495
 21
103.956
  0
LINE
  8
0
 10
-0.529495
 20
103.956
 11
-0.600525
 21
104.095
  0
LINE
  8
0
 10
-0.600525
 20
104.095
 11
-0.625
 21
104.25
  0
LINE
  8
0
 10
-0.625
 20
104.25
 11
-0.625
 21
112.25
  0
LINE
  8
0
 10
-0.625
 20
112.25
 11
-0.600525
 21
112.405
  0
LINE
  8
0
 10
-0.600525
 20
112.405
 11
-0.529495
 21
112.544
  0
LINE
  8
0
 10
-0.529495
 20
112.544
 11
-0.418884
 21
112.655
  0
LINE
  8
0
 10
-0.418884
 20
112.655
 11
-0.279495
 21
112.726
  0
LINE
  8
0
 10
-0.279495
 20
112.726
 11
-0.125
 21
112.75
  0
LINE
  8
0
 10
-0.125
 20
112.75
 11
0.0294952
 21
112.726
  0
LINE
  8
0
 10
0.0294952
 20
112.726
 11
0.168884
 21
112.655
  0
LINE
  8
0
 10
0.168884
 20
112.655
 11
0.279495
 21
112.544
  0
LINE
  8
0
 10
0.279495
 20
112.544
 11
0.350525
 21
112.405
  0
LINE
  8
0
 10
0.350525
 20
112.405
 11
0.375
 21
112.25
  0
LINE
  8
0
 10
0.375
 20
112.25
 11
0.375
 21
104.25
  0
LINE
  8
0
 10
0.375
 20
104.25
 11
0.350525
 21
104.095
  0
LINE
  8
0
 10
0.350525
 20
104.095
 11
0.279495
 21
103.956
  0
LINE
  8
0
 10
0.279495
 20
103.956
 11
0.168884
 21
103.845
  0
LINE
  8
0
 10
0.168884
 20
103.845
 11
0.0294952
 21
103.774
  0
LINE
  8
0
 10
0.0294952
 20
103.774
 11
-0.125
 21
103.75
  0
LINE
  8
0
 10
-0.125
 20
103.75
 11
-0.279495
 21
103.774
  0
LINE
  8
0
 10
-11.5976
 20
107.43
 11
-11.9113
 21
107.59
  0
LINE
  8
0
 10
-11.9113
 20
107.59
 11
-12.1601
 21
107.839
  0
LINE
  8
0
 10
-12.1601
 20
107.839
 11
-12.3199
 21
108.152
  0
LINE
  8
0
 10
-12.3199
 20
108.152
 11
-12.375
 21
108.5
  0
LINE
  8
0
 10
-12.375
 20
108.5
 11
-12.3199
 21
108.848
  0
LINE
  8
0
 10
-12.3199
 20
108.848
 11
-12.1601
 21
109.161
  0
LINE
  8
0
 10
-12.1601
 20
109.161
 11
-11.9113
 21
109.41
  0
LINE
  8
0
 10
-11.9113
 20
109.41
 11
-11.5976
 21
109.57
  0
LINE
  8
0
 10
-11.5976
 20
109.57
 11
-11.25
 21
109.625
  0
LINE
  8
0
 10
-11.25
 20
109.625
 11
-10.9023
 21
109.57
  0
LINE
  8
0
 10
-10.9023
 20
109.57
 11
-10.5887
 21
109.41
  0
LINE
  8
0
 10
-10.5887
 20
109.41
 11
-10.3398
 21
109.161
  0
LINE
  8
0
 10
-10.3398
 20
109.161
 11
-10.1801
 21
108.848
  0
LINE
  8
0
 10
-10.1801
 20
108.848
 11
-10.125
 21
108.5
  0
LINE
  8
0
 10
-10.125
 20
108.5
 11
-10.1801
 21
108.152
  0
LINE
  8
0
 10
-10.1801
 20
108.152
 11
-10.3398
 21
107.839
  0
LINE
  8
0
 10
-10.3398
 20
107.839
 11
-10.5887
 21
107.59
  0
LINE
  8
0
 10
-10.5887
 20
107.59
 11
-10.9023
 21
107.43
  0
LINE
  8
0
 10
-10.9023
 20
107.43
 11
-11.25
 21
107.375
  0
LINE
  8
0
 10
-11.25
 20
107.375
 11
-11.5976
 21
107.43
  0
LINE
  8
0
 10
108.493
 20
100.479
 11
107.901
 21
100.781
  0
LINE
  8
0
 10
107.901
 20
100.781
 11
107.431
 21
101.251
  0
LINE
  8
0
 10
107.431
 20
101.251
 11
107.129
 21
101.843
  0
LINE
  8
0
 10
107.129
 20
101.843
 11
107.025
 21
102.5
  0
LINE
  8
0
 10
107.025
 20
102.5
 11
107.129
 21
103.157
  0
LINE
  8
0
 10
107.129
 20
103.157
 11
107.431
 21
103.749
  0
LINE
  8
0
 10
107.431
 20
103.749
 11
107.901
 21
104.219
  0
LINE
  8
0
 10
107.901
 20
104.219
 11
108.493
 21
104.521
  0
LINE
  8
0
 10
108.493
 20
104.521
 11
109.15
 21
104.625
  0
LINE
  8
0
 10
109.15
 20
104.625
 11
109.807
 21
104.521
  0
LINE
  8
0
 10
109.807
 20
104.521
 11
110.399
 21
104.219
  0
LINE
  8
0
 10
110.399
 20
104.219
 11
110.869
 21
103.749
  0
LINE
  8
0
 10
110.869
 20
103.749
 11
111.171
 21
103.157
  0
LINE
  8
0
 10
111.171
 20
103.157
 11
111.275
 21
102.5
  0
LINE
  8
0
 10
111.275
 20
102.5
 11
111.171
 21
101.843
  0
LINE
  8
0
 10
111.171
 20
101.843
 11
110.869
 21
101.251
  0
LINE
  8
0
 10
110.869
 20
101.251
 11
110.399
 21
100.781
  0
LINE
  8
0
 10
110.399
 20
100.781
 11
109.807
 21
100.479
  0
LINE
  8
0
 10
109.807
 20
100.479
 11
109.15
 21
100.375
  0
LINE
  8
0
 10
109.15
 20
100.375
 11
108.493
 21
100.479
  0
LINE
  8
0
 10
104.47
 20
90.962
 11
104.331
 21
91.033
  0
LINE
  8
0
 10
104.331
 20
91.033
 11
104.22
 21
91.1436
  0
LINE
  8
0
 10
104.22
 20
91.1436
 11
104.149
 21
91.283
  0
LINE
  8
0
 10
104.149
 20
91.283
 11
104.125
 21
91.4375
  0
LINE
  8
0
 10
104.125
 20
91.4375
 11
104.125
 21
102.5
  0
LINE
  8
0
 10
104.125
 20
102.5
 11
104.149
 21
102.655
  0
LINE
  8
0
 10
104.149
 20
102.655
 11
104.22
 21
102.794
  0
LINE
  8
0
 10
104.22
 20
102.794
 11
104.331
 21
102.905
  0
LINE
  8
0
 10
104.331
 20
102.905
 11
104.47
 21
102.976
  0
LINE
  8
0
 10
104.47
 20
102.976
 11
104.625
 21
103
  0
LINE
  8
0
 10
104.625
 20
103
 11
104.78
 21
102.976
  0
LINE
  8
0
 10
104.78
 20
102.976
 11
104.919
 21
102.905
  0
LINE
  8
0
 10
104.919
 20
102.905
 11
105.03
 21
102.794
  0
LINE
  8
0
 10
105.03
 20
102.794
 11
105.101
 21
102.655
  0
LINE
  8
0
 10
105.101
 20
102.655
 11
105.125
 21
102.5
  0
LINE
  8
0
 10
105.125
 20
102.5
 11
105.125
 21
91.4375
  0
LINE
  8
0
 10
105.125
 20
91.4375
 11
105.101
 21
91.283
  0
LINE
  8
0
 10
105.101
 20
91.283
 11
105.03
 21
91.1436
  0
LINE
  8
0
 10
105.03
 20
91.1436
 11
104.919
 21
91.033
  0
LINE
  8
0
 10
104.919
 20
91.033
 11
104.78
 21
90.962
  0
LINE
  8
0
 10
104.78
 20
90.962
 11
104.625
 21
90.9375
  0
LINE
  8
0
 10
104.625
 20
90.9375
 11
104.47
 21
90.962
  0
LINE
  8
0
 10
-0.35675
 20
93.0367
 11
-0.565826
 21
93.1432
  0
LINE
  8
0
 10
-0.565826
 20
93.1432
 11
-0.73175
 21
93.3092
  0
LINE
  8
0
 10
-0.73175
 20
93.3092
 11
-0.838287
 21
93.5182
  0
LINE
  8
0
 10
-0.838287
 20
93.5182
 11
-0.859161
 21
93.65
  0
LINE
  8
0
 10
-0.859161
 20
93.65
 11
-9.5
 21
93.65
  0
LINE
  8
0
 10
-9.5
 20
93.65
 11
-9.5
 21
101.15
  0
LINE
  8
0
 10
-9.5
 20
101.15
 11
-0.859146
 21
101.15
  0
LINE
  8
0
 10
-0.859146
 20
101.15
 11
-0.875
 21
101.25
  0
LINE
  8
0
 10
-0.875
 20
101.25
 11
-0.838287
 21
101.482
  0
LINE
  8
0
 10
-0.838287
 20
101.482
 11
-0.73175
 21
101.691
  0
LINE
  8
0
 10
-0.73175
 20
101.691
 11
-0.565826
 21
101.857
  0
LINE
  8
0
 10
-0.565826
 20
101.857
 11
-0.35675
 21
101.963
  0
LINE
  8
0
 10
-0.35675
 20
101.963
 11
-0.125
 21
102
  0
LINE
  8
0
 10
-0.125
 20
102
 11
0.10675
 21
101.963
  0
LINE
  8
0
 10
0.10675
 20
101.963
 11
0.315826
 21
101.857
  0
LINE
  8
0
 10
0.315826
 20
101.857
 11
0.48175
 21
101.691
  0
LINE
  8
0
 10
0.48175
 20
101.691
 11
0.588287
 21
101.482
  0
LINE
  8
0
 10
0.588287
 20
101.482
 11
0.625
 21
101.25
  0
LINE
  8
0
 10
0.625
 20
101.25
 11
0.588287
 21
101.018
  0
LINE
  8
0
 10
0.588287
 20
101.018
 11
0.48175
 21
100.809
  0
LINE
  8
0
 10
0.48175
 20
100.809
 11
0.315826
 21
100.643
  0
LINE
  8
0
 10
0.315826
 20
100.643
 11
0.10675
 21
100.537
  0
LINE
  8
0
 10
0.10675
 20
100.537
 11
0
 21
100.52
  0
LINE
  8
0
 10
0
 20
100.52
 11
0
 21
94.4802
  0
LINE
  8
0
 10
0
 20
94.4802
 11
0.10675
 21
94.4633
  0
LINE
  8
0
 10
0.10675
 20
94.4633
 11
0.315826
 21
94.3568
  0
LINE
  8
0
 10
0.315826
 20
94.3568
 11
0.48175
 21
94.1908
  0
LINE
  8
0
 10
0.48175
 20
94.1908
 11
0.588287
 21
93.9818
  0
LINE
  8
0
 10
0.588287
 20
93.9818
 11
0.625
 21
93.75
  0
LINE
  8
0
 10
0.625
 20
93.75
 11
0.588287
 21
93.5182
  0
LINE
  8
0
 10
0.588287
 20
93.5182
 11
0.48175
 21
93.3092
  0
LINE
  8
0
 10
0.48175
 20
93.3092
 11
0.315826
 21
93.1432
  0
LINE
  8
0
 10
0.315826
 20
93.1432
 11
0.10675
 21
93.0367
  0
LINE
  8
0
 10
0.10675
 20
93.0367
 11
-0.125
 21
93
  0
LINE
  8
0
 10
-0.125
 20
93
 11
-0.35675
 21
93.0367
  0
LINE
  8
0
 10
-0.279495
 20
78.4411
 11
-0.418884
 21
78.5122
  0
LINE
  8
0
 10
-0.418884
 20
78.5122
 11
-0.529495
 21
78.6228
  0
LINE
  8
0
 10
-0.529495
 20
78.6228
 11
-0.600525
 21
78.7622
  0
LINE
  8
0
 10
-0.600525
 20
78.7622
 11
-0.625
 21
78.9167
  0
LINE
  8
0
 10
-0.625
 20
78.9167
 11
-0.625
 21
90.75
  0
LINE
  8
0
 10
-0.625
 20
90.75
 11
-0.600525
 21
90.9045
  0
LINE
  8
0
 10
-0.600525
 20
90.9045
 11
-0.529495
 21
91.0439
  0
LINE
  8
0
 10
-0.529495
 20
91.0439
 11
-0.418884
 21
91.1545
  0
LINE
  8
0
 10
-0.418884
 20
91.1545
 11
-0.279495
 21
91.2255
  0
LINE
  8
0
 10
-0.279495
 20
91.2255
 11
-0.125
 21
91.25
  0
LINE
  8
0
 10
-0.125
 20
91.25
 11
0.0294952
 21
91.2255
  0
LINE
  8
0
 10
0.0294952
 20
91.2255
 11
0.168884
 21
91.1545
  0
LINE
  8
0
 10
0.168884
 20
91.1545
 11
0.279495
 21
91.0439
  0
LINE
  8
0
 10
0.279495
 20
91.0439
 11
0.350525
 21
90.9045
  0
LINE
  8
0
 10
0.350525
 20
90.9045
 11
0.375
 21
90.75
  0
LINE
  8
0
 10
0.375
 20
90.75
 11
0.375
 21
78.9167
  0
LINE
  8
0
 10
0.375
 20
78.9167
 11
0.350525
 21
78.7621
  0
LINE
  8
0
 10
0.350525
 20
78.7621
 11
0.279495
 21
78.6228
  0
LINE
  8
0
 10
0.279495
 20
78.6228
 11
0.168884
 21
78.5121
  0
LINE
  8
0
 10
0.168884
 20
78.5121
 11
0.0294952
 21
78.4411
  0
LINE
  8
0
 10
0.0294952
 20
78.4411
 11
-0.125
 21
78.4167
  0
LINE
  8
0
 10
-0.125
 20
78.4167
 11
-0.279495
 21
78.4411
  0
LINE
  8
0
 10
104.47
 20
76.8995
 11
104.331
 21
76.9705
  0
LINE
  8
0
 10
104.331
 20
76.9705
 11
104.22
 21
77.0811
  0
LINE
  8
0
 10
104.22
 20
77.0811
 11
104.149
 21
77.2205
  0
LINE
  8
0
 10
104.149
 20
77.2205
 11
104.125
 21
77.375
  0
LINE
  8
0
 10
104.125
 20
77.375
 11
104.125
 21
88.4375
  0
LINE
  8
0
 10
104.125
 20
88.4375
 11
104.149
 21
88.592
  0
LINE
  8
0
 10
104.149
 20
88.592
 11
104.22
 21
88.7314
  0
LINE
  8
0
 10
104.22
 20
88.7314
 11
104.331
 21
88.842
  0
LINE
  8
0
 10
104.331
 20
88.842
 11
104.47
 21
88.913
  0
LINE
  8
0
 10
104.47
 20
88.913
 11
104.625
 21
88.9375
  0
LINE
  8
0
 10
104.625
 20
88.9375
 11
104.78
 21
88.913
  0
LINE
  8
0
 10
104.78
 20
88.913
 11
104.919
 21
88.842
  0
LINE
  8
0
 10
104.919
 20
88.842
 11
105.03
 21
88.7314
  0
LINE
  8
0
 10
105.03
 20
88.7314
 11
105.101
 21
88.592
  0
LINE
  8
0
 10
105.101
 20
88.592
 11
105.125
 21
88.4375
  0
LINE
  8
0
 10
105.125
 20
88.4375
 11
105.125
 21
77.375
  0
LINE
  8
0
 10
105.125
 20
77.375
 11
105.101
 21
77.2205
  0
LINE
  8
0
 10
105.101
 20
77.2205
 11
105.03
 21
77.0811
  0
LINE
  8
0
 10
105.03
 20
77.0811
 11
104.919
 21
76.9705
  0
LINE
  8
0
 10
104.919
 20
76.9705
 11
104.78
 21
76.8995
  0
LINE
  8
0
 10
104.78
 20
76.8995
 11
104.625
 21
76.875
  0
LINE
  8
0
 10
104.625
 20
76.875
 11
104.47
 21
76.8995
  0
LINE
  8
0
 10
-0.279495
 20
63.6078
 11
-0.418884
 21
63.6788
  0
LINE
  8
0
 10
-0.418884
 20
63.6788
 11
-0.529495
 21
63.7894
  0
LINE
  8
0
 10
-0.529495
 20
63.7894
 11
-0.600525
 21
63.9288
  0
LINE
  8
0
 10
-0.600525
 20
63.9288
 11
-0.625
 21
64.0833
  0
LINE
  8
0
 10
-0.625
 20
64.0833
 11
-0.625
 21
75.9167
  0
LINE
  8
0
 10
-0.625
 20
75.9167
 11
-0.600525
 21
76.0712
  0
LINE
  8
0
 10
-0.600525
 20
76.0712
 11
-0.529495
 21
76.2106
  0
LINE
  8
0
 10
-0.529495
 20
76.2106
 11
-0.418884
 21
76.3212
  0
LINE
  8
0
 10
-0.418884
 20
76.3212
 11
-0.279495
 21
76.3922
  0
LINE
  8
0
 10
-0.279495
 20
76.3922
 11
-0.125
 21
76.4167
  0
LINE
  8
0
 10
-0.125
 20
76.4167
 11
0.0294952
 21
76.3922
  0
LINE
  8
0
 10
0.0294952
 20
76.3922
 11
0.168884
 21
76.3212
  0
LINE
  8
0
 10
0.168884
 20
76.3212
 11
0.279495
 21
76.2106
  0
LINE
  8
0
 10
0.279495
 20
76.2106
 11
0.350525
 21
76.0712
  0
LINE
  8
0
 10
0.350525
 20
76.0712
 11
0.375
 21
75.9167
  0
LINE
  8
0
 10
0.375
 20
75.9167
 11
0.375
 21
64.0833
  0
LINE
  8
0
 10
0.375
 20
64.0833
 11
0.350525
 21
63.9288
  0
LINE
  8
0
 10
0.350525
 20
63.9288
 11
0.279495
 21
63.7894
  0
LINE
  8
0
 10
0.279495
 20
63.7894
 11
0.168884
 21
63.6788
  0
LINE
  8
0
 10
0.168884
 20
63.6788
 11
0.0294952
 21
63.6078
  0
LINE
  8
0
 10
0.0294952
 20
63.6078
 11
-0.125
 21
63.5833
  0
LINE
  8
0
 10
-0.125
 20
63.5833
 11
-0.279495
 21
63.6078
  0
LINE
  8
0
 10
104.47
 20
62.837
 11
104.331
 21
62.908
  0
LINE
  8
0
 10
104.331
 20
62.908
 11
104.22
 21
63.0186
  0
LINE
  8
0
 10
104.22
 20
63.0186
 11
104.149
 21
63.158
  0
LINE
  8
0
 10
104.149
 20
63.158
 11
104.125
 21
63.3125
  0
LINE
  8
0
 10
104.125
 20
63.3125
 11
104.125
 21
74.375
  0
LINE
  8
0
 10
104.125
 20
74.375
 11
104.149
 21
74.5295
  0
LINE
  8
0
 10
104.149
 20
74.5295
 11
104.22
 21
74.6689
  0
LINE
  8
0
 10
104.22
 20
74.6689
 11
104.331
 21
74.7795
  0
LINE
  8
0
 10
104.331
 20
74.7795
 11
104.47
 21
74.8505
  0
LINE
  8
0
 10
104.47
 20
74.8505
 11
104.625
 21
74.875
  0
LINE
  8
0
 10
104.625
 20
74.875
 11
104.78
 21
74.8505
  0
LINE
  8
0
 10
104.78
 20
74.8505
 11
104.919
 21
74.7795
  0
LINE
  8
0
 10
104.919
 20
74.7795
 11
105.03
 21
74.6689
  0
LINE
  8
0
 10
105.03
 20
74.6689
 11
105.101
 21
74.5295
  0
LINE
  8
0
 10
105.101
 20
74.5295
 11
105.125
 21
74.375
  0
LINE
  8
0
 10
105.125
 20
74.375
 11
105.125
 21
63.3125
  0
LINE
  8
0
 10
105.125
 20
63.3125
 11
105.101
 21
63.158
  0
LINE
  8
0
 10
105.101
 20
63.158
 11
105.03
 21
63.0186
  0
LINE
  8
0
 10
105.03
 20
63.0186
 11
104.919
 21
62.908
  0
LINE
  8
0
 10
104.919
 20
62.908
 11
104.78
 21
62.837
  0
LINE
  8
0
 10
104.78
 20
62.837
 11
104.625
 21
62.8125
  0
LINE
  8
0
 10
104.625
 20
62.8125
 11
104.47
 21
62.837
  0
LINE
  8
0
 10
-0.279495
 20
48.7745
 11
-0.418884
 21
48.8455
  0
LINE
  8
0
 10
-0.418884
 20
48.8455
 11
-0.529495
 21
48.9561
  0
LINE
  8
0
 10
-0.529495
 20
48.9561
 11
-0.600525
 21
49.0955
  0
LINE
  8
0
 10
-0.600525
 20
49.0955
 11
-0.625
 21
49.25
  0
LINE
  8
0
 10
-0.625
 20
49.25
 11
-0.625
 21
61.0833
  0
LINE
  8
0
 10
-0.625
 20
61.0833
 11
-0.600525
 21
61.2378
  0
LINE
  8
0
 10
-0.600525
 20
61.2378
 11
-0.529495
 21
61.3772
  0
LINE
  8
0
 10
-0.529495
 20
61.3772
 11
-0.418884
 21
61.4878
  0
LINE
  8
0
 10
-0.418884
 20
61.4878
 11
-0.279495
 21
61.5589
  0
LINE
  8
0
 10
-0.279495
 20
61.5589
 11
-0.125
 21
61.5833
  0
LINE
  8
0
 10
-0.125
 20
61.5833
 11
0.0294952
 21
61.5589
  0
LINE
  8
0
 10
0.0294952
 20
61.5589
 11
0.168884
 21
61.4878
  0
LINE
  8
0
 10
0.168884
 20
61.4878
 11
0.279495
 21
61.3772
  0
LINE
  8
0
 10
0.279495
 20
61.3772
 11
0.350525
 21
61.2378
  0
LINE
  8
0
 10
0.350525
 20
61.2378
 11
0.375
 21
61.0833
  0
LINE
  8
0
 10
0.375
 20
61.0833
 11
0.375
 21
49.25
  0
LINE
  8
0
 10
0.375
 20
49.25
 11
0.350525
 21
49.0955
  0
LINE
  8
0
 10
0.350525
 20
49.0955
 11
0.279495
 21
48.9561
  0
LINE
  8
0
 10
0.279495
 20
48.9561
 11
0.168884
 21
48.8455
  0
LINE
  8
0
 10
0.168884
 20
48.8455
 11
0.0294952
 21
48.7745
  0
LINE
  8
0
 10
0.0294952
 20
48.7745
 11
-0.125
 21
48.75
  0
LINE
  8
0
 10
-0.125
 20
48.75
 11
-0.279495
 21
48.7745
  0
LINE
  8
0
 10
104.47
 20
48.7745
 11
104.331
 21
48.8455
  0
LINE
  8
0
 10
104.331
 20
48.8455
 11
104.22
 21
48.9561
  0
LINE
  8
0
 10
104.22
 20
48.9561
 11
104.149
 21
49.0955
  0
LINE
  8
0
 10
104.149
 20
49.0955
 11
104.125
 21
49.25
  0
LINE
  8
0
 10
104.125
 20
49.25
 11
104.125
 21
60.3125
  0
LINE
  8
0
 10
104.125
 20
60.3125
 11
104.149
 21
60.467
  0
LINE
  8
0
 10
104.149
 20
60.467
 11
104.22
 21
60.6064
  0
LINE
  8
0
 10
104.22
 20
60.6064
 11
104.331
 21
60.717
  0
LINE
  8
0
 10
104.331
 20
60.717
 11
104.47
 21
60.788
  0
LINE
  8
0
 10
104.47
 20
60.788
 11
104.625
 21
60.8125
  0
LINE
  8
0
 10
104.625
 20
60.8125
 11
104.78
 21
60.788
  0
LINE
  8
0
 10
104.78
 20
60.788
 11
104.919
 21
60.717
  0
LINE
  8
0
 10
104.919
 20
60.717
 11
105.03
 21
60.6064
  0
LINE
  8
0
 10
105.03
 20
60.6064
 11
105.101
 21
60.467
  0
LINE
  8
0
 10
105.101
 20
60.467
 11
105.125
 21
60.3125
  0
LINE
  8
0
 10
105.125
 20
60.3125
 11
105.125
 21
49.25
  0
LINE
  8
0
 10
105.125
 20
49.25
 11
105.101
 21
49.0955
  0
LINE
  8
0
 10
105.101
 20
49.0955
 11
105.03
 21
48.9561
  0
LINE
  8
0
 10
105.03
 20
48.9561
 11
104.919
 21
48.8455
  0
LINE
  8
0
 10
104.919
 20
48.8455
 11
104.78
 21
48.7745
  0
LINE
  8
0
 10
104.78
 20
48.7745
 11
104.625
 21
48.75
  0
LINE
  8
0
 10
104.625
 20
48.75
 11
104.47
 21
48.7745
  0
LINE
  8
0
 10
53.2745
 20
46.2795
 11
53.3455
 21
46.4189
  0
LINE
  8
0
 10
53.3455
 20
46.4189
 11
53.4561
 21
46.5295
  0
LINE
  8
0
 10
53.4561
 20
46.5295
 11
53.5955
 21
46.6005
  0
LINE
  8
0
 10
53.5955
 20
46.6005
 11
53.75
 21
46.625
  0
LINE
  8
0
 10
53.75
 20
46.625
 11
63.4375
 21
46.625
  0
LINE
  8
0
 10
63.4375
 20
46.625
 11
63.592
 21
46.6005
  0
LINE
  8
0
 10
63.592
 20
46.6005
 11
63.7314
 21
46.5295
  0
LINE
  8
0
 10
63.7314
 20
46.5295
 11
63.842
 21
46.4189
  0
LINE
  8
0
 10
63.842
 20
46.4189
 11
63.913
 21
46.2795
  0
LINE
  8
0
 10
63.913
 20
46.2795
 11
63.9375
 21
46.125
  0
LINE
  8
0
 10
63.9375
 20
46.125
 11
63.913
 21
45.9705
  0
LINE
  8
0
 10
63.913
 20
45.9705
 11
63.842
 21
45.8311
  0
LINE
  8
0
 10
63.842
 20
45.8311
 11
63.7314
 21
45.7205
  0
LINE
  8
0
 10
63.7314
 20
45.7205
 11
63.592
 21
45.6495
  0
LINE
  8
0
 10
63.592
 20
45.6495
 11
63.4375
 21
45.625
  0
LINE
  8
0
 10
63.4375
 20
45.625
 11
53.75
 21
45.625
  0
LINE
  8
0
 10
53.75
 20
45.625
 11
53.5955
 21
45.6495
  0
LINE
  8
0
 10
53.5955
 20
45.6495
 11
53.4561
 21
45.7205
  0
LINE
  8
0
 10
53.4561
 20
45.7205
 11
53.3455
 21
45.8311
  0
LINE
  8
0
 10
53.3455
 20
45.8311
 11
53.2745
 21
45.9705
  0
LINE
  8
0
 10
53.2745
 20
45.9705
 11
53.25
 21
46.125
  0
LINE
  8
0
 10
53.25
 20
46.125
 11
53.2745
 21
46.2795
  0
LINE
  8
0
 10
28.375
 20
45.625
 11
28.2205
 21
45.6495
  0
LINE
  8
0
 10
28.2205
 20
45.6495
 11
28.0811
 21
45.7205
  0
LINE
  8
0
 10
28.0811
 20
45.7205
 11
27.9705
 21
45.8311
  0
LINE
  8
0
 10
27.9705
 20
45.8311
 11
27.8995
 21
45.9705
  0
LINE
  8
0
 10
27.8995
 20
45.9705
 11
27.875
 21
46.125
  0
LINE
  8
0
 10
27.875
 20
46.125
 11
27.8995
 21
46.2795
  0
LINE
  8
0
 10
27.8995
 20
46.2795
 11
27.9705
 21
46.4189
  0
LINE
  8
0
 10
27.9705
 20
46.4189
 11
28.0811
 21
46.5295
  0
LINE
  8
0
 10
28.0811
 20
46.5295
 11
28.2205
 21
46.6005
  0
LINE
  8
0
 10
28.2205
 20
46.6005
 11
28.375
 21
46.625
  0
LINE
  8
0
 10
28.375
 20
46.625
 11
38.0625
 21
46.625
  0
LINE
  8
0
 10
38.0625
 20
46.625
 11
38.217
 21
46.6005
  0
LINE
  8
0
 10
38.217
 20
46.6005
 11
38.3564
 21
46.5295
  0
LINE
  8
0
 10
38.3564
 20
46.5295
 11
38.467
 21
46.4189
  0
LINE
  8
0
 10
38.467
 20
46.4189
 11
38.538
 21
46.2795
  0
LINE
  8
0
 10
38.538
 20
46.2795
 11
38.5625
 21
46.125
  0
LINE
  8
0
 10
38.5625
 20
46.125
 11
38.538
 21
45.9705
  0
LINE
  8
0
 10
38.538
 20
45.9705
 11
38.467
 21
45.8311
  0
LINE
  8
0
 10
38.467
 20
45.8311
 11
38.3564
 21
45.7205
  0
LINE
  8
0
 10
38.3564
 20
45.7205
 11
38.217
 21
45.6495
  0
LINE
  8
0
 10
38.217
 20
45.6495
 11
38.0625
 21
45.625
  0
LINE
  8
0
 10
38.0625
 20
45.625
 11
28.375
 21
45.625
  0
LINE
  8
0
 10
15.6875
 20
45.625
 11
15.533
 21
45.6495
  0
LINE
  8
0
 10
15.533
 20
45.6495
 11
15.3936
 21
45.7205
  0
LINE
  8
0
 10
15.3936
 20
45.7205
 11
15.283
 21
45.8311
  0
LINE
  8
0
 10
15.283
 20
45.8311
 11
15.212
 21
45.9705
  0
LINE
  8
0
 10
15.212
 20
45.9705
 11
15.1875
 21
46.125
  0
LINE
  8
0
 10
15.1875
 20
46.125
 11
15.212
 21
46.2795
  0
LINE
  8
0
 10
15.212
 20
46.2795
 11
15.283
 21
46.4189
  0
LINE
  8
0
 10
15.283
 20
46.4189
 11
15.3936
 21
46.5295
  0
LINE
  8
0
 10
15.3936
 20
46.5295
 11
15.533
 21
46.6005
  0
LINE
  8
0
 10
15.533
 20
46.6005
 11
15.6875
 21
46.625
  0
LINE
  8
0
 10
15.6875
 20
46.625
 11
25.375
 21
46.625
  0
LINE
  8
0
 10
25.375
 20
46.625
 11
25.5295
 21
46.6005
  0
LINE
  8
0
 10
25.5295
 20
46.6005
 11
25.6689
 21
46.5295
  0
LINE
  8
0
 10
25.6689
 20
46.5295
 11
25.7795
 21
46.4189
  0
LINE
  8
0
 10
25.7795
 20
46.4189
 11
25.8505
 21
46.2795
  0
LINE
  8
0
 10
25.8505
 20
46.2795
 11
25.875
 21
46.125
  0
LINE
  8
0
 10
25.875
 20
46.125
 11
25.8505
 21
45.9705
  0
LINE
  8
0
 10
25.8505
 20
45.9705
 11
25.7795
 21
45.8311
  0
LINE
  8
0
 10
25.7795
 20
45.8311
 11
25.6689
 21
45.7205
  0
LINE
  8
0
 10
25.6689
 20
45.7205
 11
25.5295
 21
45.6495
  0
LINE
  8
0
 10
25.5295
 20
45.6495
 11
25.375
 21
45.625
  0
LINE
  8
0
 10
25.375
 20
45.625
 11
15.6875
 21
45.625
  0
LINE
  8
0
 10
3
 20
45.625
 11
2.84549
 21
45.6495
  0
LINE
  8
0
 10
2.84549
 20
45.6495
 11
2.7061
 21
45.7205
  0
LINE
  8
0
 10
2.7061
 20
45.7205
 11
2.59549
 21
45.8311
  0
LINE
  8
0
 10
2.59549
 20
45.8311
 11
2.52446
 21
45.9705
  0
LINE
  8
0
 10
2.52446
 20
45.9705
 11
2.5
 21
46.125
  0
LINE
  8
0
 10
2.5
 20
46.125
 11
2.52446
 21
46.2795
  0
LINE
  8
0
 10
2.52446
 20
46.2795
 11
2.59549
 21
46.4189
  0
LINE
  8
0
 10
2.59549
 20
46.4189
 11
2.7061
 21
46.5295
  0
LINE
  8
0
 10
2.7061
 20
46.5295
 11
2.84549
 21
46.6005
  0
LINE
  8
0
 10
2.84549
 20
46.6005
 11
3
 21
46.625
  0
LINE
  8
0
 10
3
 20
46.625
 11
12.6875
 21
46.625
  0
LINE
  8
0
 10
12.6875
 20
46.625
 11
12.842
 21
46.6005
  0
LINE
  8
0
 10
12.842
 20
46.6005
 11
12.9814
 21
46.5295
  0
LINE
  8
0
 10
12.9814
 20
46.5295
 11
13.092
 21
46.4189
  0
LINE
  8
0
 10
13.092
 20
46.4189
 11
13.163
 21
46.2795
  0
LINE
  8
0
 10
13.163
 20
46.2795
 11
13.1875
 21
46.125
  0
LINE
  8
0
 10
13.1875
 20
46.125
 11
13.163
 21
45.9705
  0
LINE
  8
0
 10
13.163
 20
45.9705
 11
13.092
 21
45.8311
  0
LINE
  8
0
 10
13.092
 20
45.8311
 11
12.9814
 21
45.7205
  0
LINE
  8
0
 10
12.9814
 20
45.7205
 11
12.842
 21
45.6495
  0
LINE
  8
0
 10
12.842
 20
45.6495
 11
12.6875
 21
45.625
  0
LINE
  8
0
 10
12.6875
 20
45.625
 11
3
 21
45.625
  0
LINE
  8
0
 10
66.4375
 20
45.625
 11
66.283
 21
45.6495
  0
LINE
  8
0
 10
66.283
 20
45.6495
 11
66.1436
 21
45.7205
  0
LINE
  8
0
 10
66.1436
 20
45.7205
 11
66.033
 21
45.8311
  0
LINE
  8
0
 10
66.033
 20
45.8311
 11
65.962
 21
45.9705
  0
LINE
  8
0
 10
65.962
 20
45.9705
 11
65.9375
 21
46.125
  0
LINE
  8
0
 10
65.9375
 20
46.125
 11
65.962
 21
46.2795
  0
LINE
  8
0
 10
65.962
 20
46.2795
 11
66.033
 21
46.4189
  0
LINE
  8
0
 10
66.033
 20
46.4189
 11
66.1436
 21
46.5295
  0
LINE
  8
0
 10
66.1436
 20
46.5295
 11
66.283
 21
46.6005
  0
LINE
  8
0
 10
66.283
 20
46.6005
 11
66.4375
 21
46.625
  0
LINE
  8
0
 10
66.4375
 20
46.625
 11
76.125
 21
46.625
  0
LINE
  8
0
 10
76.125
 20
46.625
 11
76.2795
 21
46.6005
  0
LINE
  8
0
 10
76.2795
 20
46.6005
 11
76.4189
 21
46.5295
  0
LINE
  8
0
 10
76.4189
 20
46.5295
 11
76.5295
 21
46.4189
  0
LINE
  8
0
 10
76.5295
 20
46.4189
 11
76.6005
 21
46.2795
  0
LINE
  8
0
 10
76.6005
 20
46.2795
 11
76.625
 21
46.125
  0
LINE
  8
0
 10
76.625
 20
46.125
 11
76.6005
 21
45.9705
  0
LINE
  8
0
 10
76.6005
 20
45.9705
 11
76.5295
 21
45.8311
  0
LINE
  8
0
 10
76.5295
 20
45.8311
 11
76.4189
 21
45.7205
  0
LINE
  8
0
 10
76.4189
 20
45.7205
 11
76.2795
 21
45.6495
  0
LINE
  8
0
 10
76.2795
 20
45.6495
 11
76.125
 21
45.625
  0
LINE
  8
0
 10
76.125
 20
45.625
 11
66.4375
 21
45.625
  0
LINE
  8
0
 10
91.408
 20
46.4189
 11
91.5186
 21
46.5295
  0
LINE
  8
0
 10
91.5186
 20
46.5295
 11
91.658
 21
46.6005
  0
LINE
  8
0
 10
91.658
 20
46.6005
 11
91.8125
 21
46.625
  0
LINE
  8
0
 10
91.8125
 20
46.625
 11
101.5
 21
46.625
  0
LINE
  8
0
 10
101.5
 20
46.625
 11
101.655
 21
46.6005
  0
LINE
  8
0
 10
101.655
 20
46.6005
 11
101.794
 21
46.5295
  0
LINE
  8
0
 10
101.794
 20
46.5295
 11
101.905
 21
46.4189
  0
LINE
  8
0
 10
101.905
 20
46.4189
 11
101.976
 21
46.2795
  0
LINE
  8
0
 10
101.976
 20
46.2795
 11
102
 21
46.125
  0
LINE
  8
0
 10
102
 20
46.125
 11
101.976
 21
45.9705
  0
LINE
  8
0
 10
101.976
 20
45.9705
 11
101.905
 21
45.8311
  0
LINE
  8
0
 10
101.905
 20
45.8311
 11
101.794
 21
45.7205
  0
LINE
  8
0
 10
101.794
 20
45.7205
 11
101.655
 21
45.6495
  0
LINE
  8
0
 10
101.655
 20
45.6495
 11
101.5
 21
45.625
  0
LINE
  8
0
 10
101.5
 20
45.625
 11
91.8125
 21
45.625
  0
LINE
  8
0
 10
91.8125
 20
45.625
 11
91.658
 21
45.6495
  0
LINE
  8
0
 10
91.658
 20
45.6495
 11
91.5186
 21
45.7205
  0
LINE
  8
0
 10
91.5186
 20
45.7205
 11
91.408
 21
45.8311
  0
LINE
  8
0
 10
91.408
 20
45.8311
 11
91.337
 21
45.9705
  0
LINE
  8
0
 10
91.337
 20
45.9705
 11
91.3125
 21
46.125
  0
LINE
  8
0
 10
91.3125
 20
46.125
 11
91.337
 21
46.2795
  0
LINE
  8
0
 10
91.337
 20
46.2795
 11
91.408
 21
46.4189
  0
LINE
  8
0
 10
9.25
 20
7.34999
 11
9.25
 21
14.85
  0
LINE
  8
0
 10
9.25
 20
14.85
 11
41.25
 21
14.85
  0
LINE
  8
0
 10
41.25
 20
14.85
 11
41.25
 21
7.34999
  0
LINE
  8
0
 10
41.25
 20
7.34999
 11
9.25
 21
7.34999
  0
LINE
  8
0
 10
54.5
 20
6.5
 11
54.809
 21
6.45105
  0
LINE
  8
0
 10
54.809
 20
6.45105
 11
55.0878
 21
6.30901
  0
LINE
  8
0
 10
55.0878
 20
6.30901
 11
55.309
 21
6.08778
  0
LINE
  8
0
 10
55.309
 20
6.08778
 11
55.451
 21
5.80901
  0
LINE
  8
0
 10
55.451
 20
5.80901
 11
55.5
 21
5.5
  0
LINE
  8
0
 10
55.5
 20
5.5
 11
55.451
 21
5.19098
  0
LINE
  8
0
 10
55.451
 20
5.19098
 11
55.309
 21
4.9122
  0
LINE
  8
0
 10
55.309
 20
4.9122
 11
55.0878
 21
4.69098
  0
LINE
  8
0
 10
55.0878
 20
4.69098
 11
54.809
 21
4.54893
  0
LINE
  8
0
 10
54.809
 20
4.54893
 11
54.5
 21
4.5
  0
LINE
  8
0
 10
54.5
 20
4.5
 11
54.191
 21
4.54893
  0
LINE
  8
0
 10
54.191
 20
4.54893
 11
53.9122
 21
4.69098
  0
LINE
  8
0
 10
53.9122
 20
4.69098
 11
53.691
 21
4.9122
  0
LINE
  8
0
 10
53.691
 20
4.9122
 11
53.5489
 21
5.19098
  0
LINE
  8
0
 10
53.5489
 20
5.19098
 11
53.5
 21
5.5
  0
LINE
  8
0
 10
53.5
 20
5.5
 11
53.5489
 21
5.80901
  0
LINE
  8
0
 10
53.5489
 20
5.80901
 11
53.691
 21
6.08778
  0
LINE
  8
0
 10
53.691
 20
6.08778
 11
53.9122
 21
6.30901
  0
LINE
  8
0
 10
53.9122
 20
6.30901
 11
54.191
 21
6.45105
  0
LINE
  8
0
 10
54.191
 20
6.45105
 11
54.5
 21
6.5
  0
LINE
  8
0
 10
61.75
 20
3
 11
61.2092
 21
3.08565
  0
LINE
  8
0
 10
61.2092
 20
3.08565
 11
60.7214
 21
3.33421
  0
LINE
  8
0
 10
60.7214
 20
3.33421
 11
60.3342
 21
3.72137
  0
LINE
  8
0
 10
60.3342
 20
3.72137
 11
60.0856
 21
4.20921
  0
LINE
  8
0
 10
60.0856
 20
4.20921
 11
60
 21
4.75
  0
LINE
  8
0
 10
60
 20
4.75
 11
60.0856
 21
5.29077
  0
LINE
  8
0
 10
60.0856
 20
5.29077
 11
60.3342
 21
5.77861
  0
LINE
  8
0
 10
60.3342
 20
5.77861
 11
60.7214
 21
6.16577
  0
LINE
  8
0
 10
60.7214
 20
6.16577
 11
61.2092
 21
6.41434
  0
LINE
  8
0
 10
61.2092
 20
6.41434
 11
61.75
 21
6.5
  0
LINE
  8
0
 10
61.75
 20
6.5
 11
67.25
 21
6.5
  0
LINE
  8
0
 10
67.25
 20
6.5
 11
67.7908
 21
6.41434
  0
LINE
  8
0
 10
67.7908
 20
6.41434
 11
68.2786
 21
6.16577
  0
LINE
  8
0
 10
68.2786
 20
6.16577
 11
68.6658
 21
5.77861
  0
LINE
  8
0
 10
68.6658
 20
5.77861
 11
68.9144
 21
5.29077
  0
LINE
  8
0
 10
68.9144
 20
5.29077
 11
69
 21
4.75
  0
LINE
  8
0
 10
69
 20
4.75
 11
68.9144
 21
4.20921
  0
LINE
  8
0
 10
68.9144
 20
4.20921
 11
68.6658
 21
3.72137
  0
LINE
  8
0
 10
68.6658
 20
3.72137
 11
68.2786
 21
3.33421
  0
LINE
  8
0
 10
68.2786
 20
3.33421
 11
67.7908
 21
3.08565
  0
LINE
  8
0
 10
67.7908
 20
3.08565
 11
67.25
 21
3
  0
LINE
  8
0
 10
67.25
 20
3
 11
61.75
 21
3
  0
LINE
  8
0
 10
25.691
 20
4.54893
 11
25.4122
 21
4.69098
  0
LINE
  8
0
 10
25.4122
 20
4.69098
 11
25.191
 21
4.9122
  0
LINE
  8
0
 10
25.191
 20
4.9122
 11
25.0489
 21
5.19098
  0
LINE
  8
0
 10
25.0489
 20
5.19098
 11
25
 21
5.5
  0
LINE
  8
0
 10
25
 20
5.5
 11
25.0489
 21
5.80901
  0
LINE
  8
0
 10
25.0489
 20
5.80901
 11
25.191
 21
6.08778
  0
LINE
  8
0
 10
25.191
 20
6.08778
 11
25.4122
 21
6.30901
  0
LINE
  8
0
 10
25.4122
 20
6.30901
 11
25.691
 21
6.45105
  0
LINE
  8
0
 10
25.691
 20
6.45105
 11
26
 21
6.5
  0
LINE
  8
0
 10
26
 20
6.5
 11
26.309
 21
6.45105
  0
LINE
  8
0
 10
26.309
 20
6.45105
 11
26.5878
 21
6.30901
  0
LINE
  8
0
 10
26.5878
 20
6.30901
 11
26.809
 21
6.08778
  0
LINE
  8
0
 10
26.809
 20
6.08778
 11
26.951
 21
5.80901
  0
LINE
  8
0
 10
26.951
 20
5.80901
 11
27
 21
5.5
  0
LINE
  8
0
 10
27
 20
5.5
 11
26.951
 21
5.19098
  0
LINE
  8
0
 10
26.951
 20
5.19098
 11
26.809
 21
4.9122
  0
LINE
  8
0
 10
26.809
 20
4.9122
 11
26.5878
 21
4.69098
  0
LINE
  8
0
 10
26.5878
 20
4.69098
 11
26.309
 21
4.54893
  0
LINE
  8
0
 10
26.309
 20
4.54893
 11
26
 21
4.5
  0
LINE
  8
0
 10
26
 20
4.5
 11
25.691
 21
4.54893
  0
LINE
  8
0
 10
15.191
 20
4.54893
 11
14.9122
 21
4.69098
  0
LINE
  8
0
 10
14.9122
 20
4.69098
 11
14.691
 21
4.9122
  0
LINE
  8
0
 10
14.691
 20
4.9122
 11
14.5489
 21
5.19098
  0
LINE
  8
0
 10
14.5489
 20
5.19098
 11
14.5
 21
5.5
  0
LINE
  8
0
 10
14.5
 20
5.5
 11
14.5489
 21
5.80901
  0
LINE
  8
0
 10
14.5489
 20
5.80901
 11
14.691
 21
6.08778
  0
LINE
  8
0
 10
14.691
 20
6.08778
 11
14.9122
 21
6.30901
  0
LINE
  8
0
 10
14.9122
 20
6.30901
 11
15.191
 21
6.45105
  0
LINE
  8
0
 10
15.191
 20
6.45105
 11
15.5
 21
6.5
  0
LINE
  8
0
 10
15.5
 20
6.5
 11
15.809
 21
6.45105
  0
LINE
  8
0
 10
15.809
 20
6.45105
 11
16.0878
 21
6.30901
  0
LINE
  8
0
 10
16.0878
 20
6.30901
 11
16.309
 21
6.08778
  0
LINE
  8
0
 10
16.309
 20
6.08778
 11
16.451
 21
5.80901
  0
LINE
  8
0
 10
16.451
 20
5.80901
 11
16.5
 21
5.5
  0
LINE
  8
0
 10
16.5
 20
5.5
 11
16.451
 21
5.19098
  0
LINE
  8
0
 10
16.451
 20
5.19098
 11
16.309
 21
4.9122
  0
LINE
  8
0
 10
16.309
 20
4.9122
 11
16.0878
 21
4.69098
  0
LINE
  8
0
 10
16.0878
 20
4.69098
 11
15.809
 21
4.54893
  0
LINE
  8
0
 10
15.809
 20
4.54893
 11
15.5
 21
4.5
  0
LINE
  8
0
 10
15.5
 20
4.5
 11
15.191
 21
4.54893
  0
LINE
  8
0
 10
43.691
 20
4.54893
 11
43.4122
 21
4.69098
  0
LINE
  8
0
 10
43.4122
 20
4.69098
 11
43.191
 21
4.9122
  0
LINE
  8
0
 10
43.191
 20
4.9122
 11
43.0489
 21
5.19098
  0
LINE
  8
0
 10
43.0489
 20
5.19098
 11
43
 21
5.5
  0
LINE
  8
0
 10
43
 20
5.5
 11
43.0489
 21
5.80901
  0
LINE
  8
0
 10
43.0489
 20
5.80901
 11
43.191
 21
6.08778
  0
LINE
  8
0
 10
43.191
 20
6.08778
 11
43.4122
 21
6.30901
  0
LINE
  8
0
 10
43.4122
 20
6.30901
 11
43.691
 21
6.45105
  0
LINE
  8
0
 10
43.691
 20
6.45105
 11
44
 21
6.5
  0
LINE
  8
0
 10
44
 20
6.5
 11
44.309
 21
6.45105
  0
LINE
  8
0
 10
44.309
 20
6.45105
 11
44.5878
 21
6.30901
  0
LINE
  8
0
 10
44.5878
 20
6.30901
 11
44.809
 21
6.08778
  0
LINE
  8
0
 10
44.809
 20
6.08778
 11
44.951
 21
5.80901
  0
LINE
  8
0
 10
44.951
 20
5.80901
 11
45
 21
5.5
  0
LINE
  8
0
 10
45
 20
5.5
 11
44.951
 21
5.19098
  0
LINE
  8
0
 10
44.951
 20
5.19098
 11
44.809
 21
4.9122
  0
LINE
  8
0
 10
44.809
 20
4.9122
 11
44.5878
 21
4.69098
  0
LINE
  8
0
 10
44.5878
 20
4.69098
 11
44.309
 21
4.54893
  0
LINE
  8
0
 10
44.309
 20
4.54893
 11
44
 21
4.5
  0
LINE
  8
0
 10
44
 20
4.5
 11
43.691
 21
4.54893
  0
LINE
  8
0
 10
41.0625
 20
-0.625
 11
40.908
 21
-0.600525
  0
LINE
  8
0
 10
40.908
 20
-0.600525
 11
40.7686
 21
-0.529495
  0
LINE
  8
0
 10
40.7686
 20
-0.529495
 11
40.658
 21
-0.418884
  0
LINE
  8
0
 10
40.658
 20
-0.418884
 11
40.587
 21
-0.279495
  0
LINE
  8
0
 10
40.587
 20
-0.279495
 11
40.5625
 21
-0.125
  0
LINE
  8
0
 10
40.5625
 20
-0.125
 11
40.587
 21
0.0294952
  0
LINE
  8
0
 10
40.587
 20
0.0294952
 11
40.658
 21
0.168884
  0
LINE
  8
0
 10
40.658
 20
0.168884
 11
40.7686
 21
0.279495
  0
LINE
  8
0
 10
40.7686
 20
0.279495
 11
40.908
 21
0.350525
  0
LINE
  8
0
 10
40.908
 20
0.350525
 11
41.0625
 21
0.375
  0
LINE
  8
0
 10
41.0625
 20
0.375
 11
50.75
 21
0.375
  0
LINE
  8
0
 10
50.75
 20
0.375
 11
50.9045
 21
0.350525
  0
LINE
  8
0
 10
50.9045
 20
0.350525
 11
51.0439
 21
0.279495
  0
LINE
  8
0
 10
51.0439
 20
0.279495
 11
51.1545
 21
0.168884
  0
LINE
  8
0
 10
51.1545
 20
0.168884
 11
51.2255
 21
0.0294952
  0
LINE
  8
0
 10
51.2255
 20
0.0294952
 11
51.25
 21
-0.125
  0
LINE
  8
0
 10
51.25
 20
-0.125
 11
51.2255
 21
-0.279495
  0
LINE
  8
0
 10
51.2255
 20
-0.279495
 11
51.1545
 21
-0.418884
  0
LINE
  8
0
 10
51.1545
 20
-0.418884
 11
51.0439
 21
-0.529495
  0
LINE
  8
0
 10
51.0439
 20
-0.529495
 11
50.9045
 21
-0.600525
  0
LINE
  8
0
 10
50.9045
 20
-0.600525
 11
50.75
 21
-0.625
  0
LINE
  8
0
 10
50.75
 20
-0.625
 11
41.0625
 21
-0.625
  0
LINE
  8
0
 10
28.375
 20
-0.625
 11
28.2205
 21
-0.600525
  0
LINE
  8
0
 10
28.2205
 20
-0.600525
 11
28.0811
 21
-0.529495
  0
LINE
  8
0
 10
28.0811
 20
-0.529495
 11
27.9705
 21
-0.418884
  0
LINE
  8
0
 10
27.9705
 20
-0.418884
 11
27.8995
 21
-0.279495
  0
LINE
  8
0
 10
27.8995
 20
-0.279495
 11
27.875
 21
-0.125
  0
LINE
  8
0
 10
27.875
 20
-0.125
 11
27.8995
 21
0.0294952
  0
LINE
  8
0
 10
27.8995
 20
0.0294952
 11
27.9705
 21
0.168884
  0
LINE
  8
0
 10
27.9705
 20
0.168884
 11
28.0811
 21
0.279495
  0
LINE
  8
0
 10
28.0811
 20
0.279495
 11
28.2205
 21
0.350525
  0
LINE
  8
0
 10
28.2205
 20
0.350525
 11
28.375
 21
0.375
  0
LINE
  8
0
 10
28.375
 20
0.375
 11
38.0625
 21
0.375
  0
LINE
  8
0
 10
38.0625
 20
0.375
 11
38.217
 21
0.350525
  0
LINE
  8
0
 10
38.217
 20
0.350525
 11
38.3564
 21
0.279495
  0
LINE
  8
0
 10
38.3564
 20
0.279495
 11
38.467
 21
0.168884
  0
LINE
  8
0
 10
38.467
 20
0.168884
 11
38.538
 21
0.0294952
  0
LINE
  8
0
 10
38.538
 20
0.0294952
 11
38.5625
 21
-0.125
  0
LINE
  8
0
 10
38.5625
 20
-0.125
 11
38.538
 21
-0.279495
  0
LINE
  8
0
 10
38.538
 20
-0.279495
 11
38.467
 21
-0.418884
  0
LINE
  8
0
 10
38.467
 20
-0.418884
 11
38.3564
 21
-0.529495
  0
LINE
  8
0
 10
38.3564
 20
-0.529495
 11
38.217
 21
-0.600525
  0
LINE
  8
0
 10
38.217
 20
-0.600525
 11
38.0625
 21
-0.625
  0
LINE
  8
0
 10
38.0625
 20
-0.625
 11
28.375
 21
-0.625
  0
LINE
  8
0
 10
53.75
 20
-0.625
 11
53.5955
 21
-0.600525
  0
LINE
  8
0
 10
53.5955
 20
-0.600525
 11
53.4561
 21
-0.529495
  0
LINE
  8
0
 10
53.4561
 20
-0.529495
 11
53.3455
 21
-0.418884
  0
LINE
  8
0
 10
53.3455
 20
-0.418884
 11
53.2745
 21
-0.279495
  0
LINE
  8
0
 10
53.2745
 20
-0.279495
 11
53.25
 21
-0.125
  0
LINE
  8
0
 10
53.25
 20
-0.125
 11
53.2745
 21
0.0294952
  0
LINE
  8
0
 10
53.2745
 20
0.0294952
 11
53.3455
 21
0.168884
  0
LINE
  8
0
 10
53.3455
 20
0.168884
 11
53.4561
 21
0.279495
  0
LINE
  8
0
 10
53.4561
 20
0.279495
 11
53.5955
 21
0.350525
  0
LINE
  8
0
 10
53.5955
 20
0.350525
 11
53.75
 21
0.375
  0
LINE
  8
0
 10
53.75
 20
0.375
 11
63.4375
 21
0.375
  0
LINE
  8
0
 10
63.4375
 20
0.375
 11
63.592
 21
0.350525
  0
LINE
  8
0
 10
63.592
 20
0.350525
 11
63.7314
 21
0.279495
  0
LINE
  8
0
 10
63.7314
 20
0.279495
 11
63.842
 21
0.168884
  0
LINE
  8
0
 10
63.842
 20
0.168884
 11
63.913
 21
0.0294952
  0
LINE
  8
0
 10
63.913
 20
0.0294952
 11
63.9375
 21
-0.125
  0
LINE
  8
0
 10
63.9375
 20
-0.125
 11
63.913
 21
-0.279495
  0
LINE
  8
0
 10
63.913
 20
-0.279495
 11
63.842
 21
-0.418884
  0
LINE
  8
0
 10
63.842
 20
-0.418884
 11
63.7314
 21
-0.529495
  0
LINE
  8
0
 10
63.7314
 20
-0.529495
 11
63.592
 21
-0.600525
  0
LINE
  8
0
 10
63.592
 20
-0.600525
 11
63.4375
 21
-0.625
  0
LINE
  8
0
 10
63.4375
 20
-0.625
 11
53.75
 21
-0.625
  0
LINE
  8
0
 10
91.8125
 20
-0.625
 11
91.658
 21
-0.600525
  0
LINE
  8
0
 10
91.658
 20
-0.600525
 11
91.5186
 21
-0.529495
  0
LINE
  8
0
 10
91.5186
 20
-0.529495
 11
91.408
 21
-0.418884
  0
LINE
  8
0
 10
91.408
 20
-0.418884
 11
91.337
 21
-0.279495
  0
LINE
  8
0
 10
91.337
 20
-0.279495
 11
91.3125
 21
-0.125
  0
LINE
  8
0
 10
91.3125
 20
-0.125
 11
91.337
 21
0.0294952
  0
LINE
  8
0
 10
91.337
 20
0.0294952
 11
91.408
 21
0.168884
  0
LINE
  8
0
 10
91.408
 20
0.168884
 11
91.5186
 21
0.279495
  0
LINE
  8
0
 10
91.5186
 20
0.279495
 11
91.658
 21
0.350525
  0
LINE
  8
0
 10
91.658
 20
0.350525
 11
91.8125
 21
0.375
  0
LINE
  8
0
 10
91.8125
 20
0.375
 11
101.5
 21
0.375
  0
LINE
  8
0
 10
101.5
 20
0.375
 11
101.655
 21
0.350525
  0
LINE
  8
0
 10
101.655
 20
0.350525
 11
101.794
 21
0.279495
  0
LINE
  8
0
 10
101.794
 20
0.279495
 11
101.905
 21
0.168884
  0
LINE
  8
0
 10
101.905
 20
0.168884
 11
101.976
 21
0.0294952
  0
LINE
  8
0
 10
101.976
 20
0.0294952
 11
102
 21
-0.125
  0
LINE
  8
0
 10
102
 20
-0.125
 11
101.976
 21
-0.279495
  0
LINE
  8
0
 10
101.976
 20
-0.279495
 11
101.905
 21
-0.418884
  0
LINE
  8
0
 10
101.905
 20
-0.418884
 11
101.794
 21
-0.529495
  0
LINE
  8
0
 10
101.794
 20
-0.529495
 11
101.655
 21
-0.600525
  0
LINE
  8
0
 10
101.655
 20
-0.600525
 11
101.5
 21
-0.625
  0
LINE
  8
0
 10
101.5
 20
-0.625
 11
91.8125
 21
-0.625
  0
LINE
  8
0
 10
66.4375
 20
-0.625
 11
66.283
 21
-0.600525
  0
LINE
  8
0
 10
66.283
 20
-0.600525
 11
66.1436
 21
-0.529495
  0
LINE
  8
0
 10
66.1436
 20
-0.529495
 11
66.033
 21
-0.418884
  0
LINE
  8
0
 10
66.033
 20
-0.418884
 11
65.962
 21
-0.279495
  0
LINE
  8
0
 10
65.962
 20
-0.279495
 11
65.9375
 21
-0.125
  0
LINE
  8
0
 10
65.9375
 20
-0.125
 11
65.962
 21
0.0294952
  0
LINE
  8
0
 10
65.962
 20
0.0294952
 11
66.033
 21
0.168884
  0
LINE
  8
0
 10
66.033
 20
0.168884
 11
66.1436
 21
0.279495
  0
LINE
  8
0
 10
66.1436
 20
0.279495
 11
66.283
 21
0.350525
  0
LINE
  8
0
 10
66.283
 20
0.350525
 11
66.4375
 21
0.375
  0
LINE
  8
0
 10
66.4375
 20
0.375
 11
76.125
 21
0.375
  0
LINE
  8
0
 10
76.125
 20
0.375
 11
76.2795
 21
0.350525
  0
LINE
  8
0
 10
76.2795
 20
0.350525
 11
76.4189
 21
0.279495
  0
LINE
  8
0
 10
76.4189
 20
0.279495
 11
76.5295
 21
0.168884
  0
LINE
  8
0
 10
76.5295
 20
0.168884
 11
76.6005
 21
0.0294952
  0
LINE
  8
0
 10
76.6005
 20
0.0294952
 11
76.625
 21
-0.125
  0
LINE
  8
0
 10
76.625
 20
-0.125
 11
76.6005
 21
-0.279495
  0
LINE
  8
0
 10
76.6005
 20
-0.279495
 11
76.5295
 21
-0.418884
  0
LINE
  8
0
 10
76.5295
 20
-0.418884
 11
76.4189
 21
-0.529495
  0
LINE
  8
0
 10
76.4189
 20
-0.529495
 11
76.2795
 21
-0.600525
  0
LINE
  8
0
 10
76.2795
 20
-0.600525
 11
76.125
 21
-0.625
  0
LINE
  8
0
 10
76.125
 20
-0.625
 11
66.4375
 21
-0.625
  0
LINE
  8
0
 10
79.125
 20
-0.625
 11
78.9705
 21
-0.600525
  0
LINE
  8
0
 10
78.9705
 20
-0.600525
 11
78.8311
 21
-0.529495
  0
LINE
  8
0
 10
78.8311
 20
-0.529495
 11
78.7205
 21
-0.418884
  0
LINE
  8
0
 10
78.7205
 20
-0.418884
 11
78.6495
 21
-0.279495
  0
LINE
  8
0
 10
78.6495
 20
-0.279495
 11
78.625
 21
-0.125
  0
LINE
  8
0
 10
78.625
 20
-0.125
 11
78.6495
 21
0.0294952
  0
LINE
  8
0
 10
78.6495
 20
0.0294952
 11
78.7205
 21
0.168884
  0
LINE
  8
0
 10
78.7205
 20
0.168884
 11
78.8311
 21
0.279495
  0
LINE
  8
0
 10
78.8311
 20
0.279495
 11
78.9705
 21
0.350525
  0
LINE
  8
0
 10
78.9705
 20
0.350525
 11
79.125
 21
0.375
  0
LINE
  8
0
 10
79.125
 20
0.375
 11
88.8125
 21
0.375
  0
LINE
  8
0
 10
88.8125
 20
0.375
 11
88.967
 21
0.350525
  0
LINE
  8
0
 10
88.967
 20
0.350525
 11
89.1064
 21
0.279495
  0
LINE
  8
0
 10
89.1064
 20
0.279495
 11
89.217
 21
0.168884
  0
LINE
  8
0
 10
89.217
 20
0.168884
 11
89.288
 21
0.0294952
  0
LINE
  8
0
 10
89.288
 20
0.0294952
 11
89.3125
 21
-0.125
  0
LINE
  8
0
 10
89.3125
 20
-0.125
 11
89.288
 21
-0.279495
  0
LINE
  8
0
 10
89.288
 20
-0.279495
 11
89.217
 21
-0.418884
  0
LINE
  8
0
 10
89.217
 20
-0.418884
 11
89.1064
 21
-0.529495
  0
LINE
  8
0
 10
89.1064
 20
-0.529495
 11
88.967
 21
-0.600525
  0
LINE
  8
0
 10
88.967
 20
-0.600525
 11
88.8125
 21
-0.625
  0
LINE
  8
0
 10
88.8125
 20
-0.625
 11
79.125
 21
-0.625
  0
LINE
  8
0
 10
3
 20
-0.625
 11
2.84549
 21
-0.600525
  0
LINE
  8
0
 10
2.84549
 20
-0.600525
 11
2.7061
 21
-0.529495
  0
LINE
  8
0
 10
2.7061
 20
-0.529495
 11
2.59549
 21
-0.418884
  0
LINE
  8
0
 10
2.59549
 20
-0.418884
 11
2.52446
 21
-0.279495
  0
LINE
  8
0
 10
2.52446
 20
-0.279495
 11
2.5
 21
-0.125
  0
LINE
  8
0
 10
2.5
 20
-0.125
 11
2.52446
 21
0.0294952
  0
LINE
  8
0
 10
2.52446
 20
0.0294952
 11
2.59549
 21
0.168884
  0
LINE
  8
0
 10
2.59549
 20
0.168884
 11
2.7061
 21
0.279495
  0
LINE
  8
0
 10
2.7061
 20
0.279495
 11
2.84549
 21
0.350525
  0
LINE
  8
0
 10
2.84549
 20
0.350525
 11
3
 21
0.375
  0
LINE
  8
0
 10
3
 20
0.375
 11
12.6875
 21
0.375
  0
LINE
  8
0
 10
12.6875
 20
0.375
 11
12.842
 21
0.350525
  0
LINE
  8
0
 10
12.842
 20
0.350525
 11
12.9814
 21
0.279495
  0
LINE
  8
0
 10
12.9814
 20
0.279495
 11
13.092
 21
0.168884
  0
LINE
  8
0
 10
13.092
 20
0.168884
 11
13.163
 21
0.0294952
  0
LINE
  8
0
 10
13.163
 20
0.0294952
 11
13.1875
 21
-0.125
  0
LINE
  8
0
 10
13.1875
 20
-0.125
 11
13.163
 21
-0.279495
  0
LINE
  8
0
 10
13.163
 20
-0.279495
 11
13.092
 21
-0.418884
  0
LINE
  8
0
 10
13.092
 20
-0.418884
 11
12.9814
 21
-0.529495
  0
LINE
  8
0
 10
12.9814
 20
-0.529495
 11
12.842
 21
-0.600525
  0
LINE
  8
0
 10
12.842
 20
-0.600525
 11
12.6875
 21
-0.625
  0
LINE
  8
0
 10
12.6875
 20
-0.625
 11
3
 21
-0.625
  0
LINE
  8
0
 10
15.6875
 20
-0.625
 11
15.533
 21
-0.600525
  0
LINE
  8
0
 10
15.533
 20
-0.600525
 11
15.3936
 21
-0.529495
  0
LINE
  8
0
 10
15.3936
 20
-0.529495
 11
15.283
 21
-0.418884
  0
LINE
  8
0
 10
15.283
 20
-0.418884
 11
15.212
 21
-0.279495
  0
LINE
  8
0
 10
15.212
 20
-0.279495
 11
15.1875
 21
-0.125
  0
LINE
  8
0
 10
15.1875
 20
-0.125
 11
15.212
 21
0.0294952
  0
LINE
  8
0
 10
15.212
 20
0.0294952
 11
15.283
 21
0.168884
  0
LINE
  8
0
 10
15.283
 20
0.168884
 11
15.3936
 21
0.279495
  0
LINE
  8
0
 10
15.3936
 20
0.279495
 11
15.533
 21
0.350525
  0
LINE
  8
0
 10
15.533
 20
0.350525
 11
15.6875
 21
0.375
  0
LINE
  8
0
 10
15.6875
 20
0.375
 11
25.375
 21
0.375
  0
LINE
  8
0
 10
25.375
 20
0.375
 11
25.5295
 21
0.350525
  0
LINE
  8
0
 10
25.5295
 20
0.350525
 11
25.6689
 21
0.279495
  0
LINE
  8
0
 10
25.6689
 20
0.279495
 11
25.7795
 21
0.168884
  0
LINE
  8
0
 10
25.7795
 20
0.168884
 11
25.8505
 21
0.0294952
  0
LINE
  8
0
 10
25.8505
 20
0.0294952
 11
25.875
 21
-0.125
  0
LINE
  8
0
 10
25.875
 20
-0.125
 11
25.8505
 21
-0.279495
  0
LINE
  8
0
 10
25.8505
 20
-0.279495
 11
25.7795
 21
-0.418884
  0
LINE
  8
0
 10
25.7795
 20
-0.418884
 11
25.6689
 21
-0.529495
  0
LINE
  8
0
 10
25.6689
 20
-0.529495
 11
25.5295
 21
-0.600525
  0
LINE
  8
0
 10
25.5295
 20
-0.600525
 11
25.375
 21
-0.625
  0
LINE
  8
0
 10
25.375
 20
-0.625
 11
15.6875
 21
-0.625
  0
LINE
  8
0
 10
104.47
 20
-14.788
 11
104.331
 21
-14.717
  0
LINE
  8
0
 10
104.331
 20
-14.717
 11
104.22
 21
-14.6064
  0
LINE
  8
0
 10
104.22
 20
-14.6064
 11
104.149
 21
-14.467
  0
LINE
  8
0
 10
104.149
 20
-14.467
 11
104.125
 21
-14.3125
  0
LINE
  8
0
 10
104.125
 20
-14.3125
 11
104.125
 21
-3.25
  0
LINE
  8
0
 10
104.125
 20
-3.25
 11
104.149
 21
-3.09549
  0
LINE
  8
0
 10
104.149
 20
-3.09549
 11
104.22
 21
-2.9561
  0
LINE
  8
0
 10
104.22
 20
-2.9561
 11
104.331
 21
-2.84549
  0
LINE
  8
0
 10
104.331
 20
-2.84549
 11
104.47
 21
-2.77446
  0
LINE
  8
0
 10
104.47
 20
-2.77446
 11
104.625
 21
-2.75
  0
LINE
  8
0
 10
104.625
 20
-2.75
 11
104.78
 21
-2.77446
  0
LINE
  8
0
 10
104.78
 20
-2.77446
 11
104.919
 21
-2.84549
  0
LINE
  8
0
 10
104.919
 20
-2.84549
 11
105.03
 21
-2.9561
  0
LINE
  8
0
 10
105.03
 20
-2.9561
 11
105.101
 21
-3.09549
  0
LINE
  8
0
 10
105.101
 20
-3.09549
 11
105.125
 21
-3.25
  0
LINE
  8
0
 10
105.125
 20
-3.25
 11
105.125
 21
-14.3125
  0
LINE
  8
0
 10
105.125
 20
-14.3125
 11
105.101
 21
-14.467
  0
LINE
  8
0
 10
105.101
 20
-14.467
 11
105.03
 21
-14.6064
  0
LINE
  8
0
 10
105.03
 20
-14.6064
 11
104.919
 21
-14.717
  0
LINE
  8
0
 10
104.919
 20
-14.717
 11
104.78
 21
-14.788
  0
LINE
  8
0
 10
104.78
 20
-14.788
 11
104.625
 21
-14.8125
  0
LINE
  8
0
 10
104.625
 20
-14.8125
 11
104.47
 21
-14.788
  0
LINE
  8
0
 10
-0.279495
 20
-14.2255
 11
-0.418884
 21
-14.1545
  0
LINE
  8
0
 10
-0.418884
 20
-14.1545
 11
-0.529495
 21
-14.0439
  0
LINE
  8
0
 10
-0.529495
 20
-14.0439
 11
-0.600525
 21
-13.9045
  0
LINE
  8
0
 10
-0.600525
 20
-13.9045
 11
-0.625
 21
-13.75
  0
LINE
  8
0
 10
-0.625
 20
-13.75
 11
-0.625
 21
-3.25
  0
LINE
  8
0
 10
-0.625
 20
-3.25
 11
-0.600525
 21
-3.09549
  0
LINE
  8
0
 10
-0.600525
 20
-3.09549
 11
-0.529495
 21
-2.9561
  0
LINE
  8
0
 10
-0.529495
 20
-2.9561
 11
-0.418884
 21
-2.84549
  0
LINE
  8
0
 10
-0.418884
 20
-2.84549
 11
-0.279495
 21
-2.77446
  0
LINE
  8
0
 10
-0.279495
 20
-2.77446
 11
-0.125
 21
-2.75
  0
LINE
  8
0
 10
-0.125
 20
-2.75
 11
0.0294952
 21
-2.77446
  0
LINE
  8
0
 10
0.0294952
 20
-2.77446
 11
0.168884
 21
-2.84549
  0
LINE
  8
0
 10
0.168884
 20
-2.84549
 11
0.279495
 21
-2.9561
  0
LINE
  8
0
 10
0.279495
 20
-2.9561
 11
0.350525
 21
-3.09549
  0
LINE
  8
0
 10
0.350525
 20
-3.09549
 11
0.375
 21
-3.25
  0
LINE
  8
0
 10
0.375
 20
-3.25
 11
0.375
 21
-13.75
  0
LINE
  8
0
 10
0.375
 20
-13.75
 11
0.350525
 21
-13.9045
  0
LINE
  8
0
 10
0.350525
 20
-13.9045
 11
0.279495
 21
-14.0439
  0
LINE
  8
0
 10
0.279495
 20
-14.0439
 11
0.168884
 21
-14.1545
  0
LINE
  8
0
 10
0.168884
 20
-14.1545
 11
0.0294952
 21
-14.2255
  0
LINE
  8
0
 10
0.0294952
 20
-14.2255
 11
-0.125
 21
-14.25
  0
LINE
  8
0
 10
-0.125
 20
-14.25
 11
-0.279495
 21
-14.2255
  0
LINE
  8
0
 10
-15.35
 20
-35.75
 11
-15.35
 21
-3.74998
  0
LINE
  8
0
 10
-15.35
 20
-3.74998
 11
-7.59999
 21
-3.75
  0
LINE
  8
0
 10
-7.59999
 20
-3.75
 11
-7.59999
 21
-35.75
  0
LINE
  8
0
 10
-7.59999
 20
-35.75
 11
-15.35
 21
-35.75
  0
LINE
  8
0
 10
-5.80901
 20
-8.95105
 11
-6.08778
 21
-8.80901
  0
LINE
  8
0
 10
-6.08778
 20
-8.80901
 11
-6.30901
 21
-8.58778
  0
LINE
  8
0
 10
-6.30901
 20
-8.58778
 11
-6.45105
 21
-8.30901
  0
LINE
  8
0
 10
-6.45105
 20
-8.30901
 11
-6.5
 21
-8
  0
LINE
  8
0
 10
-6.5
 20
-8
 11
-6.45105
 21
-7.69098
  0
LINE
  8
0
 10
-6.45105
 20
-7.69098
 11
-6.30901
 21
-7.4122
  0
LINE
  8
0
 10
-6.30901
 20
-7.4122
 11
-6.08778
 21
-7.19098
  0
LINE
  8
0
 10
-6.08778
 20
-7.19098
 11
-5.80901
 21
-7.04893
  0
LINE
  8
0
 10
-5.80901
 20
-7.04893
 11
-5.5
 21
-7
  0
LINE
  8
0
 10
-5.5
 20
-7
 11
-5.19098
 21
-7.04893
  0
LINE
  8
0
 10
-5.19098
 20
-7.04893
 11
-4.9122
 21
-7.19098
  0
LINE
  8
0
 10
-4.9122
 20
-7.19098
 11
-4.69098
 21
-7.4122
  0
LINE
  8
0
 10
-4.69098
 20
-7.4122
 11
-4.54893
 21
-7.69098
  0
LINE
  8
0
 10
-4.54893
 20
-7.69098
 11
-4.5
 21
-8
  0
LINE
  8
0
 10
-4.5
 20
-8
 11
-4.54893
 21
-8.30901
  0
LINE
  8
0
 10
-4.54893
 20
-8.30901
 11
-4.69098
 21
-8.58778
  0
LINE
  8
0
 10
-4.69098
 20
-8.58778
 11
-4.9122
 21
-8.80901
  0
LINE
  8
0
 10
-4.9122
 20
-8.80901
 11
-5.19098
 21
-8.95105
  0
LINE
  8
0
 10
-5.19098
 20
-8.95105
 11
-5.5
 21
-9
  0
LINE
  8
0
 10
-5.5
 20
-9
 11
-5.80901
 21
-8.95105
  0
LINE
  8
0
 10
-5.80901
 20
-17.951
 11
-6.08778
 21
-17.809
  0
LINE
  8
0
 10
-6.08778
 20
-17.809
 11
-6.30901
 21
-17.5878
  0
LINE
  8
0
 10
-6.30901
 20
-17.5878
 11
-6.45105
 21
-17.309
  0
LINE
  8
0
 10
-6.45105
 20
-17.309
 11
-6.5
 21
-17
  0
LINE
  8
0
 10
-6.5
 20
-17
 11
-6.45105
 21
-16.691
  0
LINE
  8
0
 10
-6.45105
 20
-16.691
 11
-6.30901
 21
-16.4122
  0
LINE
  8
0
 10
-6.30901
 20
-16.4122
 11
-6.08778
 21
-16.191
  0
LINE
  8
0
 10
-6.08778
 20
-16.191
 11
-5.80901
 21
-16.0489
  0
LINE
  8
0
 10
-5.80901
 20
-16.0489
 11
-5.5
 21
-16
  0
LINE
  8
0
 10
-5.5
 20
-16
 11
-5.19098
 21
-16.0489
  0
LINE
  8
0
 10
-5.19098
 20
-16.0489
 11
-4.9122
 21
-16.191
  0
LINE
  8
0
 10
-4.9122
 20
-16.191
 11
-4.69098
 21
-16.4122
  0
LINE
  8
0
 10
-4.69098
 20
-16.4122
 11
-4.54893
 21
-16.691
  0
LINE
  8
0
 10
-4.54893
 20
-16.691
 11
-4.5
 21
-17
  0
LINE
  8
0
 10
-4.5
 20
-17
 11
-4.54893
 21
-17.309
  0
LINE
  8
0
 10
-4.54893
 20
-17.309
 11
-4.69098
 21
-17.5878
  0
LINE
  8
0
 10
-4.69098
 20
-17.5878
 11
-4.9122
 21
-17.809
  0
LINE
  8
0
 10
-4.9122
 20
-17.809
 11
-5.19098
 21
-17.951
  0
LINE
  8
0
 10
-5.19098
 20
-17.951
 11
-5.5
 21
-18
  0
LINE
  8
0
 10
-5.5
 20
-18
 11
-5.80901
 21
-17.951
  0
LINE
  8
0
 10
-0.279495
 20
-27.7255
 11
-0.418884
 21
-27.6545
  0
LINE
  8
0
 10
-0.418884
 20
-27.6545
 11
-0.529495
 21
-27.5439
  0
LINE
  8
0
 10
-0.529495
 20
-27.5439
 11
-0.600525
 21
-27.4045
  0
LINE
  8
0
 10
-0.600525
 20
-27.4045
 11
-0.625
 21
-27.25
  0
LINE
  8
0
 10
-0.625
 20
-27.25
 11
-0.625
 21
-16.75
  0
LINE
  8
0
 10
-0.625
 20
-16.75
 11
-0.600525
 21
-16.5955
  0
LINE
  8
0
 10
-0.600525
 20
-16.5955
 11
-0.529495
 21
-16.4561
  0
LINE
  8
0
 10
-0.529495
 20
-16.4561
 11
-0.418884
 21
-16.3455
  0
LINE
  8
0
 10
-0.418884
 20
-16.3455
 11
-0.279495
 21
-16.2745
  0
LINE
  8
0
 10
-0.279495
 20
-16.2745
 11
-0.125
 21
-16.25
  0
LINE
  8
0
 10
-0.125
 20
-16.25
 11
0.0294952
 21
-16.2745
  0
LINE
  8
0
 10
0.0294952
 20
-16.2745
 11
0.168884
 21
-16.3455
  0
LINE
  8
0
 10
0.168884
 20
-16.3455
 11
0.279495
 21
-16.4561
  0
LINE
  8
0
 10
0.279495
 20
-16.4561
 11
0.350525
 21
-16.5955
  0
LINE
  8
0
 10
0.350525
 20
-16.5955
 11
0.375
 21
-16.75
  0
LINE
  8
0
 10
0.375
 20
-16.75
 11
0.375
 21
-27.25
  0
LINE
  8
0
 10
0.375
 20
-27.25
 11
0.350525
 21
-27.4045
  0
LINE
  8
0
 10
0.350525
 20
-27.4045
 11
0.279495
 21
-27.5439
  0
LINE
  8
0
 10
0.279495
 20
-27.5439
 11
0.168884
 21
-27.6545
  0
LINE
  8
0
 10
0.168884
 20
-27.6545
 11
0.0294952
 21
-27.7255
  0
LINE
  8
0
 10
0.0294952
 20
-27.7255
 11
-0.125
 21
-27.75
  0
LINE
  8
0
 10
-0.125
 20
-27.75
 11
-0.279495
 21
-27.7255
  0
LINE
  8
0
 10
104.47
 20
-28.8505
 11
104.331
 21
-28.7795
  0
LINE
  8
0
 10
104.331
 20
-28.7795
 11
104.22
 21
-28.6689
  0
LINE
  8
0
 10
104.22
 20
-28.6689
 11
104.149
 21
-28.5295
  0
LINE
  8
0
 10
104.149
 20
-28.5295
 11
104.125
 21
-28.375
  0
LINE
  8
0
 10
104.125
 20
-28.375
 11
104.125
 21
-17.3125
  0
LINE
  8
0
 10
104.125
 20
-17.3125
 11
104.149
 21
-17.158
  0
LINE
  8
0
 10
104.149
 20
-17.158
 11
104.22
 21
-17.0186
  0
LINE
  8
0
 10
104.22
 20
-17.0186
 11
104.331
 21
-16.908
  0
LINE
  8
0
 10
104.331
 20
-16.908
 11
104.47
 21
-16.837
  0
LINE
  8
0
 10
104.47
 20
-16.837
 11
104.625
 21
-16.8125
  0
LINE
  8
0
 10
104.625
 20
-16.8125
 11
104.78
 21
-16.837
  0
LINE
  8
0
 10
104.78
 20
-16.837
 11
104.919
 21
-16.908
  0
LINE
  8
0
 10
104.919
 20
-16.908
 11
105.03
 21
-17.0186
  0
LINE
  8
0
 10
105.03
 20
-17.0186
 11
105.101
 21
-17.158
  0
LINE
  8
0
 10
105.101
 20
-17.158
 11
105.125
 21
-17.3125
  0
LINE
  8
0
 10
105.125
 20
-17.3125
 11
105.125
 21
-28.375
  0
LINE
  8
0
 10
105.125
 20
-28.375
 11
105.101
 21
-28.5295
  0
LINE
  8
0
 10
105.101
 20
-28.5295
 11
105.03
 21
-28.6689
  0
LINE
  8
0
 10
105.03
 20
-28.6689
 11
104.919
 21
-28.7795
  0
LINE
  8
0
 10
104.919
 20
-28.7795
 11
104.78
 21
-28.8505
  0
LINE
  8
0
 10
104.78
 20
-28.8505
 11
104.625
 21
-28.875
  0
LINE
  8
0
 10
104.625
 20
-28.875
 11
104.47
 21
-28.8505
  0
LINE
  8
0
 10
-5.80901
 20
-24.951
 11
-6.08778
 21
-24.809
  0
LINE
  8
0
 10
-6.08778
 20
-24.809
 11
-6.30901
 21
-24.5878
  0
LINE
  8
0
 10
-6.30901
 20
-24.5878
 11
-6.45105
 21
-24.309
  0
LINE
  8
0
 10
-6.45105
 20
-24.309
 11
-6.5
 21
-24
  0
LINE
  8
0
 10
-6.5
 20
-24
 11
-6.45105
 21
-23.691
  0
LINE
  8
0
 10
-6.45105
 20
-23.691
 11
-6.30901
 21
-23.4122
  0
LINE
  8
0
 10
-6.30901
 20
-23.4122
 11
-6.08778
 21
-23.191
  0
LINE
  8
0
 10
-6.08778
 20
-23.191
 11
-5.80901
 21
-23.0489
  0
LINE
  8
0
 10
-5.80901
 20
-23.0489
 11
-5.5
 21
-23
  0
LINE
  8
0
 10
-5.5
 20
-23
 11
-5.19098
 21
-23.0489
  0
LINE
  8
0
 10
-5.19098
 20
-23.0489
 11
-4.9122
 21
-23.191
  0
LINE
  8
0
 10
-4.9122
 20
-23.191
 11
-4.69098
 21
-23.4122
  0
LINE
  8
0
 10
-4.69098
 20
-23.4122
 11
-4.54893
 21
-23.691
  0
LINE
  8
0
 10
-4.54893
 20
-23.691
 11
-4.5
 21
-24
  0
LINE
  8
0
 10
-4.5
 20
-24
 11
-4.54893
 21
-24.309
  0
LINE
  8
0
 10
-4.54893
 20
-24.309
 11
-4.69098
 21
-24.5878
  0
LINE
  8
0
 10
-4.69098
 20
-24.5878
 11
-4.9122
 21
-24.809
  0
LINE
  8
0
 10
-4.9122
 20
-24.809
 11
-5.19098
 21
-24.951
  0
LINE
  8
0
 10
-5.19098
 20
-24.951
 11
-5.5
 21
-25
  0
LINE
  8
0
 10
-5.5
 20
-25
 11
-5.80901
 21
-24.951
  0
LINE
  8
0
 10
-0.279495
 20
-41.2255
 11
-0.418884
 21
-41.1545
  0
LINE
  8
0
 10
-0.418884
 20
-41.1545
 11
-0.529495
 21
-41.0439
  0
LINE
  8
0
 10
-0.529495
 20
-41.0439
 11
-0.600525
 21
-40.9045
  0
LINE
  8
0
 10
-0.600525
 20
-40.9045
 11
-0.625
 21
-40.75
  0
LINE
  8
0
 10
-0.625
 20
-40.75
 11
-0.625
 21
-30.25
  0
LINE
  8
0
 10
-0.625
 20
-30.25
 11
-0.600525
 21
-30.0955
  0
LINE
  8
0
 10
-0.600525
 20
-30.0955
 11
-0.529495
 21
-29.9561
  0
LINE
  8
0
 10
-0.529495
 20
-29.9561
 11
-0.418884
 21
-29.8455
  0
LINE
  8
0
 10
-0.418884
 20
-29.8455
 11
-0.279495
 21
-29.7745
  0
LINE
  8
0
 10
-0.279495
 20
-29.7745
 11
-0.125
 21
-29.75
  0
LINE
  8
0
 10
-0.125
 20
-29.75
 11
0.0294952
 21
-29.7745
  0
LINE
  8
0
 10
0.0294952
 20
-29.7745
 11
0.168884
 21
-29.8455
  0
LINE
  8
0
 10
0.168884
 20
-29.8455
 11
0.279495
 21
-29.9561
  0
LINE
  8
0
 10
0.279495
 20
-29.9561
 11
0.350525
 21
-30.0955
  0
LINE
  8
0
 10
0.350525
 20
-30.0955
 11
0.375
 21
-30.25
  0
LINE
  8
0
 10
0.375
 20
-30.25
 11
0.375
 21
-40.75
  0
LINE
  8
0
 10
0.375
 20
-40.75
 11
0.350525
 21
-40.9045
  0
LINE
  8
0
 10
0.350525
 20
-40.9045
 11
0.279495
 21
-41.0439
  0
LINE
  8
0
 10
0.279495
 20
-41.0439
 11
0.168884
 21
-41.1545
  0
LINE
  8
0
 10
0.168884
 20
-41.1545
 11
0.0294952
 21
-41.2255
  0
LINE
  8
0
 10
0.0294952
 20
-41.2255
 11
-0.125
 21
-41.25
  0
LINE
  8
0
 10
-0.125
 20
-41.25
 11
-0.279495
 21
-41.2255
  0
LINE
  8
0
 10
-5.80901
 20
-31.951
 11
-6.08778
 21
-31.809
  0
LINE
  8
0
 10
-6.08778
 20
-31.809
 11
-6.30901
 21
-31.5878
  0
LINE
  8
0
 10
-6.30901
 20
-31.5878
 11
-6.45105
 21
-31.309
  0
LINE
  8
0
 10
-6.45105
 20
-31.309
 11
-6.5
 21
-31
  0
LINE
  8
0
 10
-6.5
 20
-31
 11
-6.45105
 21
-30.691
  0
LINE
  8
0
 10
-6.45105
 20
-30.691
 11
-6.30901
 21
-30.4122
  0
LINE
  8
0
 10
-6.30901
 20
-30.4122
 11
-6.08778
 21
-30.191
  0
LINE
  8
0
 10
-6.08778
 20
-30.191
 11
-5.80901
 21
-30.0489
  0
LINE
  8
0
 10
-5.80901
 20
-30.0489
 11
-5.5
 21
-30
  0
LINE
  8
0
 10
-5.5
 20
-30
 11
-5.19098
 21
-30.0489
  0
LINE
  8
0
 10
-5.19098
 20
-30.0489
 11
-4.9122
 21
-30.191
  0
LINE
  8
0
 10
-4.9122
 20
-30.191
 11
-4.69098
 21
-30.4122
  0
LINE
  8
0
 10
-4.69098
 20
-30.4122
 11
-4.54893
 21
-30.691
  0
LINE
  8
0
 10
-4.54893
 20
-30.691
 11
-4.5
 21
-31
  0
LINE
  8
0
 10
-4.5
 20
-31
 11
-4.54893
 21
-31.309
  0
LINE
  8
0
 10
-4.54893
 20
-31.309
 11
-4.69098
 21
-31.5878
  0
LINE
  8
0
 10
-4.69098
 20
-31.5878
 11
-4.9122
 21
-31.809
  0
LINE
  8
0
 10
-4.9122
 20
-31.809
 11
-5.19098
 21
-31.951
  0
LINE
  8
0
 10
-5.19098
 20
-31.951
 11
-5.5
 21
-32
  0
LINE
  8
0
 10
-5.5
 20
-32
 11
-5.80901
 21
-31.951
  0
LINE
  8
0
 10
104.47
 20
-42.913
 11
104.331
 21
-42.842
  0
LINE
  8
0
 10
104.331
 20
-42.842
 11
104.22
 21
-42.7314
  0
LINE
  8
0
 10
104.22
 20
-42.7314
 11
104.149
 21
-42.592
  0
LINE
  8
0
 10
104.149
 20
-42.592
 11
104.125
 21
-42.4375
  0
LINE
  8
0
 10
104.125
 20
-42.4375
 11
104.125
 21
-31.375
  0
LINE
  8
0
 10
104.125
 20
-31.375
 11
104.149
 21
-31.2205
  0
LINE
  8
0
 10
104.149
 20
-31.2205
 11
104.22
 21
-31.0811
  0
LINE
  8
0
 10
104.22
 20
-31.0811
 11
104.331
 21
-30.9705
  0
LINE
  8
0
 10
104.331
 20
-30.9705
 11
104.47
 21
-30.8995
  0
LINE
  8
0
 10
104.47
 20
-30.8995
 11
104.625
 21
-30.875
  0
LINE
  8
0
 10
104.625
 20
-30.875
 11
104.78
 21
-30.8995
  0
LINE
  8
0
 10
104.78
 20
-30.8995
 11
104.919
 21
-30.9705
  0
LINE
  8
0
 10
104.919
 20
-30.9705
 11
105.03
 21
-31.0811
  0
LINE
  8
0
 10
105.03
 20
-31.0811
 11
105.101
 21
-31.2205
  0
LINE
  8
0
 10
105.101
 20
-31.2205
 11
105.125
 21
-31.375
  0
LINE
  8
0
 10
105.125
 20
-31.375
 11
105.125
 21
-42.4375
  0
LINE
  8
0
 10
105.125
 20
-42.4375
 11
105.101
 21
-42.592
  0
LINE
  8
0
 10
105.101
 20
-42.592
 11
105.03
 21
-42.7314
  0
LINE
  8
0
 10
105.03
 20
-42.7314
 11
104.919
 21
-42.842
  0
LINE
  8
0
 10
104.919
 20
-42.842
 11
104.78
 21
-42.913
  0
LINE
  8
0
 10
104.78
 20
-42.913
 11
104.625
 21
-42.9375
  0
LINE
  8
0
 10
104.625
 20
-42.9375
 11
104.47
 21
-42.913
  0
LINE
  8
0
 10
-0.35675
 20
-55.9633
 11
-0.565826
 21
-55.8568
  0
LINE
  8
0
 10
-0.565826
 20
-55.8568
 11
-0.73175
 21
-55.6908
  0
LINE
  8
0
 10
-0.73175
 20
-55.6908
 11
-0.838287
 21
-55.4818
  0
LINE
  8
0
 10
-0.838287
 20
-55.4818
 11
-0.875
 21
-55.25
  0
LINE
  8
0
 10
-0.875
 20
-55.25
 11
-29.25
 21
-55.25
  0
LINE
  8
0
 10
-29.25
 20
-55.25
 11
-29.25
 21
-43.75
  0
LINE
  8
0
 10
-29.25
 20
-43.75
 11
-0.875
 21
-43.75
  0
LINE
  8
0
 10
-0.875
 20
-43.75
 11
-0.838287
 21
-43.5182
  0
LINE
  8
0
 10
-0.838287
 20
-43.5182
 11
-0.73175
 21
-43.3092
  0
LINE
  8
0
 10
-0.73175
 20
-43.3092
 11
-0.565826
 21
-43.1432
  0
LINE
  8
0
 10
-0.565826
 20
-43.1432
 11
-0.35675
 21
-43.0367
  0
LINE
  8
0
 10
-0.35675
 20
-43.0367
 11
-0.125
 21
-43
  0
LINE
  8
0
 10
-0.125
 20
-43
 11
0.10675
 21
-43.0367
  0
LINE
  8
0
 10
0.10675
 20
-43.0367
 11
0.315826
 21
-43.1432
  0
LINE
  8
0
 10
0.315826
 20
-43.1432
 11
0.48175
 21
-43.3092
  0
LINE
  8
0
 10
0.48175
 20
-43.3092
 11
0.588287
 21
-43.5182
  0
LINE
  8
0
 10
0.588287
 20
-43.5182
 11
0.625
 21
-43.75
  0
LINE
  8
0
 10
0.625
 20
-43.75
 11
0.588287
 21
-43.9818
  0
LINE
  8
0
 10
0.588287
 20
-43.9818
 11
0.48175
 21
-44.1908
  0
LINE
  8
0
 10
0.48175
 20
-44.1908
 11
0.315826
 21
-44.3568
  0
LINE
  8
0
 10
0.315826
 20
-44.3568
 11
0.10675
 21
-44.4633
  0
LINE
  8
0
 10
0.10675
 20
-44.4633
 11
0
 21
-44.4802
  0
LINE
  8
0
 10
0
 20
-44.4802
 11
0
 21
-54.5198
  0
LINE
  8
0
 10
0
 20
-54.5198
 11
0.10675
 21
-54.5367
  0
LINE
  8
0
 10
0.10675
 20
-54.5367
 11
0.315826
 21
-54.6432
  0
LINE
  8
0
 10
0.315826
 20
-54.6432
 11
0.48175
 21
-54.8092
  0
LINE
  8
0
 10
0.48175
 20
-54.8092
 11
0.588287
 21
-55.0182
  0
LINE
  8
0
 10
0.588287
 20
-55.0182
 11
0.625
 21
-55.25
  0
LINE
  8
0
 10
0.625
 20
-55.25
 11
0.588287
 21
-55.4818
  0
LINE
  8
0
 10
0.588287
 20
-55.4818
 11
0.48175
 21
-55.6908
  0
LINE
  8
0
 10
0.48175
 20
-55.6908
 11
0.315826
 21
-55.8568
  0
LINE
  8
0
 10
0.315826
 20
-55.8568
 11
0.10675
 21
-55.9633
  0
LINE
  8
0
 10
0.10675
 20
-55.9633
 11
-0.125
 21
-56
  0
LINE
  8
0
 10
-0.125
 20
-56
 11
-0.35675
 21
-55.9633
  0
LINE
  8
0
 10
104.47
 20
-56.9755
 11
104.331
 21
-56.9045
  0
LINE
  8
0
 10
104.331
 20
-56.9045
 11
104.22
 21
-56.7939
  0
LINE
  8
0
 10
104.22
 20
-56.7939
 11
104.149
 21
-56.6545
  0
LINE
  8
0
 10
104.149
 20
-56.6545
 11
104.125
 21
-56.5
  0
LINE
  8
0
 10
104.125
 20
-56.5
 11
104.125
 21
-45.4375
  0
LINE
  8
0
 10
104.125
 20
-45.4375
 11
104.149
 21
-45.283
  0
LINE
  8
0
 10
104.149
 20
-45.283
 11
104.22
 21
-45.1436
  0
LINE
  8
0
 10
104.22
 20
-45.1436
 11
104.331
 21
-45.033
  0
LINE
  8
0
 10
104.331
 20
-45.033
 11
104.47
 21
-44.962
  0
LINE
  8
0
 10
104.47
 20
-44.962
 11
104.625
 21
-44.9375
  0
LINE
  8
0
 10
104.625
 20
-44.9375
 11
104.78
 21
-44.962
  0
LINE
  8
0
 10
104.78
 20
-44.962
 11
104.919
 21
-45.033
  0
LINE
  8
0
 10
104.919
 20
-45.033
 11
105.03
 21
-45.1436
  0
LINE
  8
0
 10
105.03
 20
-45.1436
 11
105.101
 21
-45.283
  0
LINE
  8
0
 10
105.101
 20
-45.283
 11
105.125
 21
-45.4375
  0
LINE
  8
0
 10
105.125
 20
-45.4375
 11
105.125
 21
-56.5
  0
LINE
  8
0
 10
105.125
 20
-56.5
 11
105.101
 21
-56.6545
  0
LINE
  8
0
 10
105.101
 20
-56.6545
 11
105.03
 21
-56.7939
  0
LINE
  8
0
 10
105.03
 20
-56.7939
 11
104.919
 21
-56.9045
  0
LINE
  8
0
 10
104.919
 20
-56.9045
 11
104.78
 21
-56.9755
  0
LINE
  8
0
 10
104.78
 20
-56.9755
 11
104.625
 21
-57
  0
LINE
  8
0
 10
104.625
 20
-57
 11
104.47
 21
-56.9755
  0
LINE
  8
0
 10
108.493
 20
-58.521
 11
107.901
 21
-58.2192
  0
LINE
  8
0
 10
107.901
 20
-58.2192
 11
107.431
 21
-57.749
  0
LINE
  8
0
 10
107.431
 20
-57.749
 11
107.129
 21
-57.1567
  0
LINE
  8
0
 10
107.129
 20
-57.1567
 11
107.025
 21
-56.5
  0
LINE
  8
0
 10
107.025
 20
-56.5
 11
107.129
 21
-55.8433
  0
LINE
  8
0
 10
107.129
 20
-55.8433
 11
107.431
 21
-55.2509
  0
LINE
  8
0
 10
107.431
 20
-55.2509
 11
107.901
 21
-54.7808
  0
LINE
  8
0
 10
107.901
 20
-54.7808
 11
108.493
 21
-54.479
  0
LINE
  8
0
 10
108.493
 20
-54.479
 11
109.15
 21
-54.375
  0
LINE
  8
0
 10
109.15
 20
-54.375
 11
109.807
 21
-54.479
  0
LINE
  8
0
 10
109.807
 20
-54.479
 11
110.399
 21
-54.7808
  0
LINE
  8
0
 10
110.399
 20
-54.7808
 11
110.869
 21
-55.2509
  0
LINE
  8
0
 10
110.869
 20
-55.2509
 11
111.171
 21
-55.8433
  0
LINE
  8
0
 10
111.171
 20
-55.8433
 11
111.275
 21
-56.5
  0
LINE
  8
0
 10
111.275
 20
-56.5
 11
111.171
 21
-57.1567
  0
LINE
  8
0
 10
111.171
 20
-57.1567
 11
110.869
 21
-57.749
  0
LINE
  8
0
 10
110.869
 20
-57.749
 11
110.399
 21
-58.2192
  0
LINE
  8
0
 10
110.399
 20
-58.2192
 11
109.807
 21
-58.521
  0
LINE
  8
0
 10
109.807
 20
-58.521
 11
109.15
 21
-58.625
  0
LINE
  8
0
 10
109.15
 20
-58.625
 11
108.493
 21
-58.521
  0
LINE
  8
0
 10
-23.059
 20
-58.201
 11
-23.3378
 21
-58.059
  0
LINE
  8
0
 10
-23.3378
 20
-58.059
 11
-23.559
 21
-57.8378
  0
LINE
  8
0
 10
-23.559
 20
-57.8378
 11
-23.701
 21
-57.559
  0
LINE
  8
0
 10
-23.701
 20
-57.559
 11
-23.75
 21
-57.25
  0
LINE
  8
0
 10
-23.75
 20
-57.25
 11
-23.701
 21
-56.941
  0
LINE
  8
0
 10
-23.701
 20
-56.941
 11
-23.559
 21
-56.6622
  0
LINE
  8
0
 10
-23.559
 20
-56.6622
 11
-23.3378
 21
-56.441
  0
LINE
  8
0
 10
-23.3378
 20
-56.441
 11
-23.059
 21
-56.2989
  0
LINE
  8
0
 10
-23.059
 20
-56.2989
 11
-22.75
 21
-56.25
  0
LINE
  8
0
 10
-22.75
 20
-56.25
 11
-22.441
 21
-56.2989
  0
LINE
  8
0
 10
-22.441
 20
-56.2989
 11
-22.1622
 21
-56.441
  0
LINE
  8
0
 10
-22.1622
 20
-56.441
 11
-21.941
 21
-56.6622
  0
LINE
  8
0
 10
-21.941
 20
-56.6622
 11
-21.7989
 21
-56.941
  0
LINE
  8
0
 10
-21.7989
 20
-56.941
 11
-21.75
 21
-57.25
  0
LINE
  8
0
 10
-21.75
 20
-57.25
 11
-21.7989
 21
-57.559
  0
LINE
  8
0
 10
-21.7989
 20
-57.559
 11
-21.941
 21
-57.8378
  0
LINE
  8
0
 10
-21.941
 20
-57.8378
 11
-22.1622
 21
-58.059
  0
LINE
  8
0
 10
-22.1622
 20
-58.059
 11
-22.441
 21
-58.201
  0
LINE
  8
0
 10
-22.441
 20
-58.201
 11
-22.75
 21
-58.25
  0
LINE
  8
0
 10
-22.75
 20
-58.25
 11
-23.059
 21
-58.201
  0
LINE
  8
0
 10
-0.279495
 20
-66.7255
 11
-0.418884
 21
-66.6545
  0
LINE
  8
0
 10
-0.418884
 20
-66.6545
 11
-0.529495
 21
-66.5439
  0
LINE
  8
0
 10
-0.529495
 20
-66.5439
 11
-0.600525
 21
-66.4045
  0
LINE
  8
0
 10
-0.600525
 20
-66.4045
 11
-0.625
 21
-66.25
  0
LINE
  8
0
 10
-0.625
 20
-66.25
 11
-0.625
 21
-58.25
  0
LINE
  8
0
 10
-0.625
 20
-58.25
 11
-0.600525
 21
-58.0955
  0
LINE
  8
0
 10
-0.600525
 20
-58.0955
 11
-0.529495
 21
-57.9561
  0
LINE
  8
0
 10
-0.529495
 20
-57.9561
 11
-0.418884
 21
-57.8455
  0
LINE
  8
0
 10
-0.418884
 20
-57.8455
 11
-0.279495
 21
-57.7745
  0
LINE
  8
0
 10
-0.279495
 20
-57.7745
 11
-0.125
 21
-57.75
  0
LINE
  8
0
 10
-0.125
 20
-57.75
 11
0.0294952
 21
-57.7745
  0
LINE
  8
0
 10
0.0294952
 20
-57.7745
 11
0.168884
 21
-57.8455
  0
LINE
  8
0
 10
0.168884
 20
-57.8455
 11
0.279495
 21
-57.9561
  0
LINE
  8
0
 10
0.279495
 20
-57.9561
 11
0.350525
 21
-58.0955
  0
LINE
  8
0
 10
0.350525
 20
-58.0955
 11
0.375
 21
-58.25
  0
LINE
  8
0
 10
0.375
 20
-58.25
 11
0.375
 21
-66.25
  0
LINE
  8
0
 10
0.375
 20
-66.25
 11
0.350525
 21
-66.4045
  0
LINE
  8
0
 10
0.350525
 20
-66.4045
 11
0.279495
 21
-66.5439
  0
LINE
  8
0
 10
0.279495
 20
-66.5439
 11
0.168884
 21
-66.6545
  0
LINE
  8
0
 10
0.168884
 20
-66.6545
 11
0.0294952
 21
-66.7255
  0
LINE
  8
0
 10
0.0294952
 20
-66.7255
 11
-0.125
 21
-66.75
  0
LINE
  8
0
 10
-0.125
 20
-66.75
 11
-0.279495
 21
-66.7255
  0
LINE
  8
0
 10
-23.5976
 20
-63.5699
 11
-23.9113
 21
-63.4101
  0
LINE
  8
0
 10
-23.9113
 20
-63.4101
 11
-24.1601
 21
-63.1613
  0
LINE
  8
0
 10
-24.1601
 20
-63.1613
 11
-24.3199
 21
-62.8476
  0
LINE
  8
0
 10
-24.3199
 20
-62.8476
 11
-24.375
 21
-62.5
  0
LINE
  8
0
 10
-24.375
 20
-62.5
 11
-24.3199
 21
-62.1523
  0
LINE
  8
0
 10
-24.3199
 20
-62.1523
 11
-24.1601
 21
-61.8387
  0
LINE
  8
0
 10
-24.1601
 20
-61.8387
 11
-23.9113
 21
-61.5898
  0
LINE
  8
0
 10
-23.9113
 20
-61.5898
 11
-23.5976
 21
-61.4301
  0
LINE
  8
0
 10
-23.5976
 20
-61.4301
 11
-23.25
 21
-61.375
  0
LINE
  8
0
 10
-23.25
 20
-61.375
 11
-22.9023
 21
-61.4301
  0
LINE
  8
0
 10
-22.9023
 20
-61.4301
 11
-22.5887
 21
-61.5898
  0
LINE
  8
0
 10
-22.5887
 20
-61.5898
 11
-22.3398
 21
-61.8387
  0
LINE
  8
0
 10
-22.3398
 20
-61.8387
 11
-22.1801
 21
-62.1523
  0
LINE
  8
0
 10
-22.1801
 20
-62.1523
 11
-22.125
 21
-62.5
  0
LINE
  8
0
 10
-22.125
 20
-62.5
 11
-22.1801
 21
-62.8476
  0
LINE
  8
0
 10
-22.1801
 20
-62.8476
 11
-22.3398
 21
-63.1613
  0
LINE
  8
0
 10
-22.3398
 20
-63.1613
 11
-22.5887
 21
-63.4101
  0
LINE
  8
0
 10
-22.5887
 20
-63.4101
 11
-22.9023
 21
-63.5699
  0
LINE
  8
0
 10
-22.9023
 20
-63.5699
 11
-23.25
 21
-63.625
  0
LINE
  8
0
 10
-23.25
 20
-63.625
 11
-23.5976
 21
-63.5699
  0
LINE
  8
0
 10
-29.5976
 20
-63.5699
 11
-29.9113
 21
-63.4101
  0
LINE
  8
0
 10
-29.9113
 20
-63.4101
 11
-30.1601
 21
-63.1613
  0
LINE
  8
0
 10
-30.1601
 20
-63.1613
 11
-30.3199
 21
-62.8476
  0
LINE
  8
0
 10
-30.3199
 20
-62.8476
 11
-30.375
 21
-62.5
  0
LINE
  8
0
 10
-30.375
 20
-62.5
 11
-30.3199
 21
-62.1523
  0
LINE
  8
0
 10
-30.3199
 20
-62.1523
 11
-30.1601
 21
-61.8387
  0
LINE
  8
0
 10
-30.1601
 20
-61.8387
 11
-29.9113
 21
-61.5898
  0
LINE
  8
0
 10
-29.9113
 20
-61.5898
 11
-29.5976
 21
-61.4301
  0
LINE
  8
0
 10
-29.5976
 20
-61.4301
 11
-29.25
 21
-61.375
  0
LINE
  8
0
 10
-29.25
 20
-61.375
 11
-28.9023
 21
-61.4301
  0
LINE
  8
0
 10
-28.9023
 20
-61.4301
 11
-28.5887
 21
-61.5898
  0
LINE
  8
0
 10
-28.5887
 20
-61.5898
 11
-28.3398
 21
-61.8387
  0
LINE
  8
0
 10
-28.3398
 20
-61.8387
 11
-28.1801
 21
-62.1523
  0
LINE
  8
0
 10
-28.1801
 20
-62.1523
 11
-28.125
 21
-62.5
  0
LINE
  8
0
 10
-28.125
 20
-62.5
 11
-28.1801
 21
-62.8476
  0
LINE
  8
0
 10
-28.1801
 20
-62.8476
 11
-28.3398
 21
-63.1613
  0
LINE
  8
0
 10
-28.3398
 20
-63.1613
 11
-28.5887
 21
-63.4101
  0
LINE
  8
0
 10
-28.5887
 20
-63.4101
 11
-28.9023
 21
-63.5699
  0
LINE
  8
0
 10
-28.9023
 20
-63.5699
 11
-29.25
 21
-63.625
  0
LINE
  8
0
 10
-29.25
 20
-63.625
 11
-29.5976
 21
-63.5699
  0
LINE
  8
0
 10
-11.5976
 20
-63.5699
 11
-11.9113
 21
-63.4101
  0
LINE
  8
0
 10
-11.9113
 20
-63.4101
 11
-12.1601
 21
-63.1613
  0
LINE
  8
0
 10
-12.1601
 20
-63.1613
 11
-12.3199
 21
-62.8476
  0
LINE
  8
0
 10
-12.3199
 20
-62.8476
 11
-12.375
 21
-62.5
  0
LINE
  8
0
 10
-12.375
 20
-62.5
 11
-12.3199
 21
-62.1523
  0
LINE
  8
0
 10
-12.3199
 20
-62.1523
 11
-12.1601
 21
-61.8387
  0
LINE
  8
0
 10
-12.1601
 20
-61.8387
 11
-11.9113
 21
-61.5898
  0
LINE
  8
0
 10
-11.9113
 20
-61.5898
 11
-11.5976
 21
-61.4301
  0
LINE
  8
0
 10
-11.5976
 20
-61.4301
 11
-11.25
 21
-61.375
  0
LINE
  8
0
 10
-11.25
 20
-61.375
 11
-10.9023
 21
-61.4301
  0
LINE
  8
0
 10
-10.9023
 20
-61.4301
 11
-10.5887
 21
-61.5898
  0
LINE
  8
0
 10
-10.5887
 20
-61.5898
 11
-10.3398
 21
-61.8387
  0
LINE
  8
0
 10
-10.3398
 20
-61.8387
 11
-10.1801
 21
-62.1523
  0
LINE
  8
0
 10
-10.1801
 20
-62.1523
 11
-10.125
 21
-62.5
  0
LINE
  8
0
 10
-10.125
 20
-62.5
 11
-10.1801
 21
-62.8476
  0
LINE
  8
0
 10
-10.1801
 20
-62.8476
 11
-10.3398
 21
-63.1613
  0
LINE
  8
0
 10
-10.3398
 20
-63.1613
 11
-10.5887
 21
-63.4101
  0
LINE
  8
0
 10
-10.5887
 20
-63.4101
 11
-10.9023
 21
-63.5699
  0
LINE
  8
0
 10
-10.9023
 20
-63.5699
 11
-11.25
 21
-63.625
  0
LINE
  8
0
 10
-11.25
 20
-63.625
 11
-11.5976
 21
-63.5699
  0
LINE
  8
0
 10
-17.5976
 20
-63.5699
 11
-17.9113
 21
-63.4101
  0
LINE
  8
0
 10
-17.9113
 20
-63.4101
 11
-18.1601
 21
-63.1613
  0
LINE
  8
0
 10
-18.1601
 20
-63.1613
 11
-18.3199
 21
-62.8476
  0
LINE
  8
0
 10
-18.3199
 20
-62.8476
 11
-18.375
 21
-62.5
  0
LINE
  8
0
 10
-18.375
 20
-62.5
 11
-18.3199
 21
-62.1523
  0
LINE
  8
0
 10
-18.3199
 20
-62.1523
 11
-18.1601
 21
-61.8387
  0
LINE
  8
0
 10
-18.1601
 20
-61.8387
 11
-17.9113
 21
-61.5898
  0
LINE
  8
0
 10
-17.9113
 20
-61.5898
 11
-17.5976
 21
-61.4301
  0
LINE
  8
0
 10
-17.5976
 20
-61.4301
 11
-17.25
 21
-61.375
  0
LINE
  8
0
 10
-17.25
 20
-61.375
 11
-16.9023
 21
-61.4301
  0
LINE
  8
0
 10
-16.9023
 20
-61.4301
 11
-16.5887
 21
-61.5898
  0
LINE
  8
0
 10
-16.5887
 20
-61.5898
 11
-16.3398
 21
-61.8387
  0
LINE
  8
0
 10
-16.3398
 20
-61.8387
 11
-16.1801
 21
-62.1523
  0
LINE
  8
0
 10
-16.1801
 20
-62.1523
 11
-16.125
 21
-62.5
  0
LINE
  8
0
 10
-16.125
 20
-62.5
 11
-16.1801
 21
-62.8476
  0
LINE
  8
0
 10
-16.1801
 20
-62.8476
 11
-16.3398
 21
-63.1613
  0
LINE
  8
0
 10
-16.3398
 20
-63.1613
 11
-16.5887
 21
-63.4101
  0
LINE
  8
0
 10
-16.5887
 20
-63.4101
 11
-16.9023
 21
-63.5699
  0
LINE
  8
0
 10
-16.9023
 20
-63.5699
 11
-17.25
 21
-63.625
  0
LINE
  8
0
 10
-17.25
 20
-63.625
 11
-17.5976
 21
-63.5699
  0
LINE
  8
0
 10
-5.75215
 20
-68.1955
 11
-6.20514
 21
-67.9646
  0
LINE
  8
0
 10
-6.20514
 20
-67.9646
 11
-6.56465
 21
-67.6051
  0
LINE
  8
0
 10
-6.56465
 20
-67.6051
 11
-6.79546
 21
-67.1521
  0
LINE
  8
0
 10
-6.79546
 20
-67.1521
 11
-6.875
 21
-66.65
  0
LINE
  8
0
 10
-6.875
 20
-66.65
 11
-6.79546
 21
-66.1478
  0
LINE
  8
0
 10
-6.79546
 20
-66.1478
 11
-6.56465
 21
-65.6948
  0
LINE
  8
0
 10
-6.56465
 20
-65.6948
 11
-6.20514
 21
-65.3353
  0
LINE
  8
0
 10
-6.20514
 20
-65.3353
 11
-5.75215
 21
-65.1045
  0
LINE
  8
0
 10
-5.75215
 20
-65.1045
 11
-5.25
 21
-65.025
  0
LINE
  8
0
 10
-5.25
 20
-65.025
 11
-4.74783
 21
-65.1045
  0
LINE
  8
0
 10
-4.74783
 20
-65.1045
 11
-4.29485
 21
-65.3353
  0
LINE
  8
0
 10
-4.29485
 20
-65.3353
 11
-3.93533
 21
-65.6948
  0
LINE
  8
0
 10
-3.93533
 20
-65.6948
 11
-3.70453
 21
-66.1478
  0
LINE
  8
0
 10
-3.70453
 20
-66.1478
 11
-3.625
 21
-66.65
  0
LINE
  8
0
 10
-3.625
 20
-66.65
 11
-3.70453
 21
-67.1521
  0
LINE
  8
0
 10
-3.70453
 20
-67.1521
 11
-3.93533
 21
-67.6051
  0
LINE
  8
0
 10
-3.93533
 20
-67.6051
 11
-4.29485
 21
-67.9646
  0
LINE
  8
0
 10
-4.29485
 20
-67.9646
 11
-4.74783
 21
-68.1955
  0
LINE
  8
0
 10
-4.74783
 20
-68.1955
 11
-5.25
 21
-68.275
  0
LINE
  8
0
 10
-5.25
 20
-68.275
 11
-5.75215
 21
-68.1955
  0
LINE
  8
0
 10
89.217
 20
45.8311
 11
89.1064
 21
45.7205
  0
LINE
  8
0
 10
89.1064
 20
45.7205
 11
88.967
 21
45.6495
  0
LINE
  8
0
 10
88.967
 20
45.6495
 11
88.8125
 21
45.625
  0
LINE
  8
0
 10
88.8125
 20
45.625
 11
79.125
 21
45.625
  0
LINE
  8
0
 10
79.125
 20
45.625
 11
78.9705
 21
45.6495
  0
LINE
  8
0
 10
78.9705
 20
45.6495
 11
78.8311
 21
45.7205
  0
LINE
  8
0
 10
78.8311
 20
45.7205
 11
78.7205
 21
45.8311
  0
LINE
  8
0
 10
78.7205
 20
45.8311
 11
78.6495
 21
45.9705
  0
LINE
  8
0
 10
78.6495
 20
45.9705
 11
78.625
 21
46.125
  0
LINE
  8
0
 10
78.625
 20
46.125
 11
78.6495
 21
46.2795
  0
LINE
  8
0
 10
78.6495
 20
46.2795
 11
78.7205
 21
46.4189
  0
LINE
  8
0
 10
78.7205
 20
46.4189
 11
78.8311
 21
46.5295
  0
LINE
  8
0
 10
78.8311
 20
46.5295
 11
78.9705
 21
46.6005
  0
LINE
  8
0
 10
78.9705
 20
46.6005
 11
79.125
 21
46.625
  0
LINE
  8
0
 10
79.125
 20
46.625
 11
88.8125
 21
46.625
  0
LINE
  8
0
 10
88.8125
 20
46.625
 11
88.967
 21
46.6005
  0
LINE
  8
0
 10
88.967
 20
46.6005
 11
89.1064
 21
46.5295
  0
LINE
  8
0
 10
89.1064
 20
46.5295
 11
89.217
 21
46.4189
  0
LINE
  8
0
 10
89.217
 20
46.4189
 11
89.288
 21
46.2795
  0
LINE
  8
0
 10
89.288
 20
46.2795
 11
89.3125
 21
46.125
  0
LINE
  8
0
 10
89.3125
 20
46.125
 11
89.288
 21
45.9705
  0
LINE
  8
0
 10
89.288
 20
45.9705
 11
89.217
 21
45.8311
  0
LINE
  8
0
 10
51.0439
 20
45.7205
 11
50.9045
 21
45.6495
  0
LINE
  8
0
 10
50.9045
 20
45.6495
 11
50.75
 21
45.625
  0
LINE
  8
0
 10
50.75
 20
45.625
 11
41.0625
 21
45.625
  0
LINE
  8
0
 10
41.0625
 20
45.625
 11
40.908
 21
45.6495
  0
LINE
  8
0
 10
40.908
 20
45.6495
 11
40.7686
 21
45.7205
  0
LINE
  8
0
 10
40.7686
 20
45.7205
 11
40.658
 21
45.8311
  0
LINE
  8
0
 10
40.658
 20
45.8311
 11
40.587
 21
45.9705
  0
LINE
  8
0
 10
40.587
 20
45.9705
 11
40.5625
 21
46.125
  0
LINE
  8
0
 10
40.5625
 20
46.125
 11
40.587
 21
46.2795
  0
LINE
  8
0
 10
40.587
 20
46.2795
 11
40.658
 21
46.4189
  0
LINE
  8
0
 10
40.658
 20
46.4189
 11
40.7686
 21
46.5295
  0
LINE
  8
0
 10
40.7686
 20
46.5295
 11
40.908
 21
46.6005
  0
LINE
  8
0
 10
40.908
 20
46.6005
 11
41.0625
 21
46.625
  0
LINE
  8
0
 10
41.0625
 20
46.625
 11
50.75
 21
46.625
  0
LINE
  8
0
 10
50.75
 20
46.625
 11
50.9045
 21
46.6005
  0
LINE
  8
0
 10
50.9045
 20
46.6005
 11
51.0439
 21
46.5295
  0
LINE
  8
0
 10
51.0439
 20
46.5295
 11
51.1545
 21
46.4189
  0
LINE
  8
0
 10
51.1545
 20
46.4189
 11
51.2255
 21
46.2795
  0
LINE
  8
0
 10
51.2255
 20
46.2795
 11
51.25
 21
46.125
  0
LINE
  8
0
 10
51.25
 20
46.125
 11
51.2255
 21
45.9705
  0
LINE
  8
0
 10
51.2255
 20
45.9705
 11
51.1545
 21
45.8311
  0
LINE
  8
0
 10
51.1545
 20
45.8311
 11
51.0439
 21
45.7205
  0
LINE
  8
0
 10
50.201
 20
5.80901
 11
50.25
 21
5.5
  0
LINE
  8
0
 10
50.25
 20
5.5
 11
50.201
 21
5.19098
  0
LINE
  8
0
 10
50.201
 20
5.19098
 11
50.059
 21
4.9122
  0
LINE
  8
0
 10
50.059
 20
4.9122
 11
49.8378
 21
4.69098
  0
LINE
  8
0
 10
49.8378
 20
4.69098
 11
49.559
 21
4.54893
  0
LINE
  8
0
 10
49.559
 20
4.54893
 11
49.25
 21
4.5
  0
LINE
  8
0
 10
49.25
 20
4.5
 11
48.941
 21
4.54893
  0
LINE
  8
0
 10
48.941
 20
4.54893
 11
48.6622
 21
4.69098
  0
LINE
  8
0
 10
48.6622
 20
4.69098
 11
48.441
 21
4.9122
  0
LINE
  8
0
 10
48.441
 20
4.9122
 11
48.2989
 21
5.19098
  0
LINE
  8
0
 10
48.2989
 20
5.19098
 11
48.25
 21
5.5
  0
LINE
  8
0
 10
48.25
 20
5.5
 11
48.2989
 21
5.80901
  0
LINE
  8
0
 10
48.2989
 20
5.80901
 11
48.441
 21
6.08778
  0
LINE
  8
0
 10
48.441
 20
6.08778
 11
48.6622
 21
6.30901
  0
LINE
  8
0
 10
48.6622
 20
6.30901
 11
48.941
 21
6.45105
  0
LINE
  8
0
 10
48.941
 20
6.45105
 11
49.25
 21
6.5
  0
LINE
  8
0
 10
49.25
 20
6.5
 11
49.559
 21
6.45105
  0
LINE
  8
0
 10
49.559
 20
6.45105
 11
49.8378
 21
6.30901
  0
LINE
  8
0
 10
49.8378
 20
6.30901
 11
50.059
 21
6.08778
  0
LINE
  8
0
 10
50.059
 20
6.08778
 11
50.201
 21
5.80901
  0
ENDSEC
  0
SECTION
  2
OBJECTS
  0
DICTIONARY
  0
ENDSEC
  0
EOF
